>
 >
Act IV: You Don't Need A Witness

Act IV: You Don't Need A Witness Bass Tabs

The Sound Of Animals Fighting - Act IV: You Don't Need A Witness chords, tabs, tablatures, lyrics

Guitar lessons | Add/correct | Request | Top 50 tabs Artists:  A B C D E F G H I J K L M N O P Q R S T U V W X Y Z 0-9

Act IV: You Don't Need A Witness Bass Tabs – The Sound Of Animals Fighting

CD, Sheet music, Poster

Do you like Act IV: You Don't Need A Witness? Share with your friends now
Bass TabsTabs
Band: The Sound Of Animals Fighting
Normal Tuning: GDAE


0:35
G|----------------------------------------------------------|
D|----------------------------------------------------------|
A|----------------------------------------------------------|
E|4-4-4-6-6-6----------------------------------4-4-4-1-1-1--|x2


0:53
G|---------------------------------------------------|
D|---------------------------------------------------|
A|---------------------------------------------------|
E|0~----3-3-3-0-0-0-2-2-2-0-0-0-3-3-3--2-2--2--2-----|x2

G|-------------------------------------|
D|-------------------------------------|
A|-------------------------------------|
E|0~----3-3-3-0-0-0-2-2-2-00----22-----|


1:13
G|--------------------------------------------------------------------------|
D|--------------------------------------------------------------------------|
A|--------/7-6-----6--5--------------------/7-5---/7\\3~--0-3-2~---2x--2-2--|
E|14\-0~---------7---------7-5---57-57-0~-----------------------------------|

G|---------------------------------------------------------------------------|
D|---------------------------------------------------------------------------|
A|7~---7-5---0h5-0h5-3---/3-2---2-2---2-2---2-2---2---2---22----2----2---222-|
E|---------------------------------------------------------------------------|

G|-----------------------------------|
D|-----------------------------------|
A|2-----2----2-2-----2---2---2-2--2--|
E|-----------------------------------|


2:16
G|--------------------------------------------------------------------|
D|--------------------------------------------------------------------|
A|----7-------5\2-2-2-5\2-2-2-----7-------5\2-2-2-5\2-2-2-----7-------|
E|0-0---0-0-0-----------------0-0---0-0-0-----------------0-0---0-0-0-|

G|---------------------------------------------|
D|---------------------------------------------|
A|5\2-2-2-5\2-2-2-----7------------------------|
E|----------------0-0---0-0-0-3-3-3-3-5-5-5-5--|x2

G|----------------------------------------------------------------------------|
D|----------------------------------------------------------------------------|
A|----7-------5\2-2-2-5\2-2-2-----7-------5\2-2-2-5\2-2-2-----7-------5\2-2-2-|
E|0-0---0-0-0-----------------0-0---0-0-0-----------------0-0---0-0-0---------|

G|-------------------------------------------------------|
D|-------------------------------------------------------|
A|5\2-2-2-----7-----------------------3-3-3-3-5-5-5-5----|
E|--------0-0---0-0-0-3-3-3-3-5-5-5-5-----------------0--|


2:49
G|-------------------------------------------------------------------------------|
D|-----------------------------------------------------------54x-----------------|
A|----------7-7--7-5-3--2/333--0----------------7-7--5-7-7~------3--2-3-3--2-3\0-|
E|0~---0--------------------------35-35-3/5-0~-----------------------------------|

G|----------------------------------------------------------------------|
D|----------------------------------------------------------------------|
A|0-0---0---7~-7p5-7-7-57-7~-7p5-7-7--7~--3~-23-3--3-3--0~--------------|
E|--------3-------------------------------------------------3h5-5-3h5-5-|

G|---------------------------|
D|---------------------------|
A|---------------------------|
E|5-5---5---5---5---5-5---5--|


3:33
G|---------|
D|---------|
A|---------|
E|14\\\\\--|

G|-----------------------------|
D|-----------------------------|
A|----7-------5\2-2-2-5\2-2-2--|
E|0-0---0-0-0------------------|x4

G|--------------------------------------------------------------------|
D|--------------------------------------------------------------------|
A|----7-------5\2-2-2-5\2-2-2-----7-------5\2-2-2-5\2-2-2-----7-------|
E|0-0---0-0-0-----------------0-0---0-0-0-----------------0-0---0-0-0-|

G|---------------------------------------------|
D|---------------------------------------------|
A|5\2-2-2-5\2-2-2-----7------------------------|
E|----------------0-0---0-0-0-3-3-3-3-5-5-5-5--|x2

G|----------------------------------------------------------------------------|
D|----------------------------------------------------------------------------|
A|----7-------5\2-2-2-5\2-2-2-----7-------5\2-2-2-5\2-2-2-----7-------5\2-2-2-|
E|0-0---0-0-0-----------------0-0---0-0-0-----------------0-0---0-0-0---------|

G|-------------------------------------------------------|
D|-------------------------------------------------------|
A|5\2-2-2-----7-----------------------3-3-3-3-5-5-5-5----|
E|--------0-0---0-0-0-3-3-3-3-5-5-5-5-----------------0--|





Comments


Popular The Sound Of Animals Fighting tabs & chords
Act III: Modulate Back To The Tonic Bass Tabs
Horses In The Sky Bass Tabs
Heretic Chords
Act I: Chasing Suns 1 Tabs
Act IV: You Don't Need A Witness Tabs
Another Leather Lung Tabs
I, The Swan Tabs
On The Occasion Of Wet Snow 1 Tabs
The Heraldic Beak Of The Manufacturer's Medallion Tabs
The Heraldic Beak Of The Manufacturer's Medallion 1 Tabs


Song lyrics



↑ Back to top | Tablatures and chords are parodies/interpretations of the original songs. You may use it for private study, scholarship, research or language learning purposes only
© 2014 AZChords.com Contact us | Privacy policy | DMCA | Add/correct tabs | Request tabs | Top 50 tabs