>
 >
Rouya

Rouya Guitar Tabs

The Seatbelts - Rouya chords, tabs, tablatures, lyrics

Guitar lessons | Add/correct | Request | Top 50 tabs Artists:  A B C D E F G H I J K L M N O P Q R S T U V W X Y Z 0-9

Rouya Guitar Tabs – The Seatbelts

CD, Sheet music, Poster

Do you like Rouya? Share with your friends now
Tabs

I am almost 100% sure of this tab, the only thing that i didnt seem to get down
(because i didn't really feel like it) is the random strumming patterns the guitarist
used when he plays the little part before the end. Questions, corrections, comments?
If so, e-mail me. I might be doing a recording of this song sometime soon (after i
finish a super mario medley), so if youd like to hear it, id be glad to e-mail it
to you as soon as its ready.

key: 3p0 - pulloff
     / - slide
     (7) - harmonic
      ^ - bend

---0----0----0----|
---0----0----2----|
---4----2----2----|
---2----2----0----| x2
--------0---------|
---4--------------|

---0---2/3-2-0-0------3/5-3p0-0---------0--------0---------------------2-5-----|
---0-0---------0----0---------0-------5-------------------5----------3---------|
---4-----------0--2-----------0-------4---4----2---2--------4------2-------(7)-|
---2-----------0--0-----------2-----6--------0----------6--------4---------(7)-| x2
------------------------------3---4-------------------4--------2---------------|
---4-----------3--2------------------------------------------------------------|

-------0--------------------------------0-----------|
-----------4^4-2-0-2--------------------0-----------|
---------2-----------2---------2-----2--1-----------|
-----2-----------------2-----0-----0----2-----------| x2
---0---------------------0--------------2-----------|
---------------------------3-----2------0--0-3^3--0-|
                                           |______|
                                              |
                                             First time only

---7-7-7-7---/9---/10---2----0---------------------|
---5-5-5-5---/7---/8----0---0----------------------|
---------------------------------------------------|
---------------------------------------------------|
---------------------------------------------------|
-----------0----0-----0---0----0-------------------|

----------------0--------------------2-----2-5-----|
-------5----------------5----------3---3-----------|
---------4----2---2-------4------2-------2---------|
-----6------0---------6--------4-------------------|
---4----------------4--------2---------------------|
---------------------------------------------------|

---0----0----0----|
---0----0----2----|
---4----2----2----|
---2----2----0----| x2
--------0---------|
---4--------------|

---0---2/3-2-0-0------3/5-3p0-0---------0--------0---------------------2-5-----|
---0-0---------0----0---------0-------5-------------------5----------3---------|
---4-----------0--2-----------0-------4---4----2---2--------4------2-------(7)-|
---2-----------0--0-----------2-----6--------0----------6--------4---------(7)-| x2
------------------------------3---4-------------------4--------2---------------|
---4-----------3--2------------------------------------------------------------|

--------12p10--5-7---0-----5---|
--------10-----5-5---0--3--3---|
---------------------0--2--2---|
---------------5-4---2--0----2-|
---------------------3---------|
---(12)-----------------3--2---|

---------0---------------0-------0-------0-----0---------0-------0-|
-------4---4-----------4-------4-------4---4-----4-----4-------4---|
-----4-------4---4---4-------4-------4-------4-------4-------4-----|
---------------2---------------------------------------------------|
----------------------------------------------------------1--------|
---0---------------0-------2-------4---------------4---------------|
x3 (im not sure on the 4-4-0 rythms, just strum
them randomly, and play in time)

-------0--------------------------------0--|
----------4^4-2-0-2---------------------0--|
--------2-----------2---------2-----2---1--|
-----2----------------3-----0-----0-----2--|
---0--------------------0---------------2--|
--------------------------3------2------0--|





Comments


Popular The Seatbelts tabs & chords
Mushroom Hunting Bass Tabs
Tank Bass Tabs
Tank 1 Bass Tabs
Tank 3 Bass Tabs
Rain Chords
Time To Know Intro Tabs
Waltz For Zizi 1 Tabs
Blue Ukulele
Gotta Knock A Little Harder Ukulele
Rain Ukulele


Song lyrics



↑ Back to top | Tablatures and chords are parodies/interpretations of the original songs. You may use it for private study, scholarship, research or language learning purposes only
© 2014 AZChords.com Contact us | Privacy policy | DMCA | Add/correct tabs | Request tabs | Top 50 tabs