>
 >
Call Me Call Me

Call Me Call Me Bass Tabs

The Seatbelts - Call Me Call Me chords, tabs, tablatures, lyrics

Guitar lessons | Add/correct | Request | Top 50 tabs Artists:  A B C D E F G H I J K L M N O P Q R S T U V W X Y Z 0-9

Call Me Call Me Bass Tabs – The Seatbelts

CD, Sheet music, Poster

Do you like Call Me Call Me? Share with your friends now
Bass Tabs
INTRO

|-----------------|-------------3---|-----------------|-----------------|
|-----------------|-----------------|-----------------|-----------------|
|-1---------------|-----------------|-1---------------|-----------------|
|-----------------|-----------------|-----------------|-----------------|

|-----------------|-----------------|-3---------------|---3-3-3-3-3-\---|
|-----------------|-------------1-3-|-----------------|-----------------|
|-1---------------|-----------------|-----------------|-----------------|
|-----------------|-----------------|-----------------|-----------------|

VERSE

|-----------------|-----------------|-----------------|-----------------|
|*----------------|-----------------|-----------------|-----------------|
|*1---------------|-------------1---|-4---------------|-----------------|
|-----------------|-----------------|-----------------|-----------------|

|-----------------|-----------------|-----------------|-----------------||
|-1---------------|---------------1-|-----------------|----------------*||
|-----------------|-----------------|-----------------|----------------*||
|-----------------|-----------------|-4---------------|-----------------||

PRE-CHORUS

|-----------------|-----------------|-----------------|-----------------|
|-----------------|-----------------|-0---------------|-------------0---|
|-----------------|-------------3---|-----------------|---------------3-|
|-3---------------|-----------------|-----------------|-----------------|

|-----------------|-----------------|-----------------|-----------------|
|-----------------|-----------------|-----------------|-----------------|
|-----------------|-----------------|-3---------------|-----------3-----|
|-1---------------|-----------------|-----------------|-------------0-1-|

|-----------------|-----------------|-----------------|-------2---------|
|-----------------|-----------------|-0---------------|-----0-----------|
|-----------------|-------------3---|-----------------|-------------3-1-|
|-3---------------|-----------------|-----------------|-----------------|

|-----------------|-----------------|---------5---5-5-|---5-3-0-----0---|
|-----------------|---------0-------|-----------------|---------1-3-----|
|-----------------|-----------3-1---|-----------------|---------------1-|
|-1---------------|-----------------|-1---------------|-----------------|

CHORUS

|-----------------|-----------------|-----------------|-----------------|
|-----------------|-----------------|-----------------|---0---------0---|
|-3---3-------3-3-|-1---1-------1---|-------------3---|-3---3---3-------|
|-----------------|---------------3-|-1---1-----1---1-|-------1---1---1-|

|-----------------|---3-3-3-3-1-----|-----------------|-------0---2-----|
|-----------------|-------------3-1-|-------------3---|---4-------------|
|-3---3-------3-2-|-1---------------|-----3-3-3-------|-------------0-1-|
|-----------------|-----------------|-1---------------|-----------------|

|-----------0-----|-----------------|-0---------------|-----------------|
|-----------------|-------------3---|---------------0-|-----------0-----|
|-3---3-------3-2-|-1---1-----1---1-|-------1---3-----|-----------------|
|-----------------|-----------------|---3-3-----------|-1-1-3-------1-3-|

|-----------------|-----------------|-----------------|-----------------|
|-1---1-----------|---------1-------|---------1-------|-3---------------|
|-------------2-1-|-------------3-1-|-----------------|-----------------|
|-----------3-----|-4---4-----------|-1---------------|-----------------|

|-5---------------|
|-----------------|
|-------------2-3-|
|-----------------|

VERSE

|-----------------|-----------------|-----------------|-----------------|
|-----------------|-----------------|-----------------|-----------------|
|-1---------------|-------------2-3-|-4---------------|-------------4---|
|-----------------|-----------------|-----------------|-----------------|

|-----------------|-----------------|-----------------|-----------------|
|-1---------------|-----------------|-----------------|---------1-------|
|-----------------|-----------0-1-0-|-----------------|-----------------|
|-----------------|-----------------|-4---------------|-------------4---|

|-----------------|-----------------|-------------6---|---6---0-2-------|
|-----------------|---------0-------|-----------------|-----------------|
|-1---------------|-----------0-1-2-|-4---------------|-----------2-4---|
|-----------------|-----------------|-----------------|-----------------|

|-----------------|-8---------------|-----------------|-----1-----------|
|-1-----------8---|-------6-8-------|-----------------|---------1-------|
|-----------6---6-|-----------0-6---|-----------------|-----------------|
|-----------------|-----------------|-4-----------4---|-------------4-\-|

PRE-CHORUS

|-----------------|-----------------|---------------0-|-2---------------|
|-----------------|-----------------|-0---------------|---------0-------|
|-------------0---|---------1---3---|-----------------|-----------------|
|-3---------------|-----------------|-----------------|-------------0---|

|-----------------|-----------------|-------------5---|-----0-----------|
|-----------------|-----------------|-----------------|---------2-------|
|-----------------|-------------1---|-3---------------|-------------3---|
|-1-----------3---|---------4-------|-----------------|-----------------|

|-----------------|-----------------|---------------0-|-2-------2-------|
|-----------------|-----------------|-0---------------|-----0-----------|
|-------------0---|---------1---3---|-----------------|-------------3---|
|-3---------------|-----------------|-----------------|---------------0-|

|-----------------|-----------------|---------5---5-5-|-5-3-0---0-------|
|-------------3---|-----------------|-----------------|-------3---------|
|-----------------|---------3---1---|-3---3-3---------|-----------3-----|
|-1---------------|-----------------|-----------------|-------------0-1-|

CHORUS
                                              
|---------0-------|---------3-------|---------5---3-0-|-----------------|
|-----------------|-------------3-1-|-3---3-----------|---2-3---0-------|
|-3---3-----0-2-0-|-1---1-----------|-----------------|-------2---0-4-0-|
|-----------------|-----------------|-----------------|-----------------|

|---------0-------|-----------------|-----------------|-----------------|
|-------------1---|-----------------|-----------------|-----------------|
|-3---3-----0---3-|-1---1---1-0-----|---------0-----1-|-----2---3---1-2-|
|-----------------|-------------3-2-|-1---1-----------|-----------1-----|

|-----------------|---------3-------|-----------------|-----------------|
|---------1-------|-------------3-0-|-----------------|-3---3---------0-|
|-3---3-------3-2-|-1---1-----------|-------------3---|-----------0-3---|
|-----------------|-----------------|-1---1-----1---1-|-----------------|

|-----------------|-----------------|-----------------|-0---------------|
|-1---1-------1---|---------1-------|-----------------|-----------------|
|-----------------|-----------------|---------1-------|-----------------|
|---------------0-|-4---4-----0-3-0-|-1---------------|-----------------|

SOLO

|-----------------|-----------------|-----------------|-----------------|
|-----------------|-----------------|-------------1---|-----------------|
|-----------------|-----------------|-----------------|-----------------|
|-----------------|-----------------|-----------------|-----------------|

|-----------------|-----------------|-----------------|-----------------|
|-----------------|-----------------|-----------------|-----------------|
|-----------------|-----------------|-------------4---|-----------------|
|-----------------|-----------------|-----------------|-----------------|

|-----------------|-----------------|-----------------|-----------------|
|-----------------|-----------------|-----------------|-----------------|
|-----------------|-----------------|-------------3---|-----------------|
|-------------4---|-----------------|-----------------|-----------------|

|-----------------|-----------------|-----------------|-----------------|
|-----------------|-----------------|-----------------|-----------------|
|-----------------|-----------------|-----------------|-----------------|
|-----------------|-----------------|-----------------|-----------------|

.
.
.


PRE-CHORUS

|-------------3-5-|-3---------------|-2-----------2---|-2-5-2-----------|
|-----------------|-----------------|---------------3-|-------3---------|
|-----------------|-----------------|-----------------|---------0-3-3---|
|-----------------|-----------------|-----------------|-----------------|

|-----------------|-----------------|-----------------|-----------------|
|-----------------|-----------------|-----------------|-----------------|
|-3---------------|-1---------------|-----------------|-----------------|
|-----------------|-----------------|-1---1---1---1---|-1-1-1-1-1-1-1-0-|

CHORUS

|-----------------|-----------------|-----------------|-----------------|
|-----------------|---------0-3-0---|-----------------|-----------------|
|-3---3---------0-|-1---1---------1-|---------------1-|-----2---3-----2-|
|-----------0-4---|-----------------|-1---1-1-4-------|-----------0-1---|

|---------0-------|-----------------|---------3-2-----|-----------------|
|-----------------|-------3---3-0---|-----------------|-----------------|
|-3---3-----0-3-0-|-1---1-----------|---------------3-|-0---------------|
|-----------------|-----------------|-1---1-----------|---1---0-1-0-1-0-|

|-----------------|---------3-------|-----------------|-----------------|
|-----------------|-------------3-0-|-----------------|-3---3---------0-|
|-3---3-------0---|-1---1-----------|-------------3---|-----------0-3---|
|-----------1---1-|-----------------|-1---1-----1---1-|-----------------|

|-----------------|---------5-------|-----------------|-----------------|
|-1---1-----------|-----------------|-----------------|-----------------|
|-------------2-1-|-------------0---|---------1-------|-3---------------|
|-----------3-----|-4---4---------0-|-1---------------|-----------------|

ENDING

|-----------------|-------------5---|-----------------|---------0---5---|
|-----------------|-----------------|-----------------|---------------3-|
|-----------------|-----------------|-3---------------|-----/-----------|
|-----------------|-----------------|-----------------|-----------------|

|-0---------------|-----------------|-----------------|-----------------||
|-----------------|-----------------|-3---------------|-----------------||
|-----------------|-------------3---|-----3-3-3-------|-----------------||
|-----------------|-----------------|-------------1---|-----------------||





Comments


Popular The Seatbelts tabs & chords
Tank Bass Tabs
Tank 1 Bass Tabs
Tank 3 Bass Tabs
Gotta' Knock A Little Harder Chords
Gotta' Knock A Little Harder 2 Chords
The Real Folk Blues Chords
Bindy Tabs
Piano Black Intro Tabs
Gotta Knock A Little Harder Ukulele
The Real Folk Blues Ukulele


Song lyrics



↑ Back to top | Tablatures and chords are parodies/interpretations of the original songs. You may use it for private study, scholarship, research or language learning purposes only
© 2014 AZChords.com Contact us | Privacy policy | DMCA | Add/correct tabs | Request tabs | Top 50 tabs