» » »

The Script, The Man Who Can't Be Moved Tabs (ver.2)

Artists:  A B C D E F G H I J K L M N O P Q R S T U V W X Y Z # 

The Man Who Can't Be Moved Tabs (ver.2)

The Script Tabs
 Rating:
4/5 (4 votes)
The Man Who Can't Be Moved lessons Tabs too difficult? Try these video lessons and learn fast
1
                 this is a brilliant song by a brilliant new band calledthe script 
well worth buying their album {only 10 euro!!!!}
this is my first tab so be as harsh as you want about it... i need to learn!!


 Intro/Verse
1|------------------------------------------------------------------|
2|------------------------------------------------------------------|
3|------------------------------------5--5-7-5--------5--5-7-5------|
4|---8--8------------8--8-----------8--8-------8----8--8-------8----|
5|--5--5---5--------5--5--5--------6--------------6-----------------|
6|-6--6---6--------5--5--5------------------------------------------|

Going back to the corner where I first saw you, 
Gonna camp in my sleeping bag. I'm not gonna move, 
Got some words on cardboard got your picture in my hand, 
Saying if you see this girl can you tell her where I am, 
Some try to hand me money they don't understand, 
I'm not... broke I'm just a broken hearted man, 
I know it makes no sense, but what else can I do, 
How can I move on when I've been in love with you... 
 
Chorus :
  
    A#     F  or  F {8th fret}   Cm
1|--1------1------x--------------3---------------------------------|
2|--3------1------10-------------4---------------------------------|
3|--3------2------10-------------5---------------------------------|
4|--3------3------10-------------5---------------------------------|
5|--1------3------8--------------3---------------------------------|
6|--x------1------x--------------x---------------------------------|

Cos if one day you wake up and find that you're missing me, 
And your heart starts to wonder where on this earth I can be, 
Thinking maybe you'd come back here to the place that we'd meet, 
And you'd see me waiting for you on the corner of the street.

So I'm not moving... 
I'm not moving.

Bridge : Intro again...

Policeman says son you can't stay here, 
I said there's someone I'm waiting for if it's a day, a month, a year,
Gotta stand my ground even if it rains or snows, 
If she changes her mind this is the first place she will go.

Chorus again :

Cos if one day you wake up and find that you're missing me, 
And your heart starts to wonder where on this earth I can be, 
Thinking maybe you'd come back here to the place that we'd meet, 
And you'd see me waiting for you on the corner of the street.

So I'm not moving... 
I'm not moving.

I'm not moving... 
I'm not moving.

1|-----------------    -----------------    ------------------------
2|------3----------    -----6-----------    ------------------------
3|------------5----    -----------8-----    ------10------8---------
4|----5-----5-----5    ----8-----8-----8    ---10------10-----10----
5|-----------------    -6-----6-----6---    -8-------8------8-------
6|--3-----3-----3--    -----------------    ------------------------

1|------------------------|
2|------------------------|
3|------------------------|
4|------8------10---------|
5|---10-----10------10----|
6|-8------8-------8-------|

People talk about the guy
Whos waiting on a girl... 
Oohoohwoo
There are no holes in his shoes
But a big hole in his world... 
Hmmmm

1|--------------------------------------------|                 
2|--------------------------------------------|
3|------7----7----------------10------10------|
4|----8----8-----8---------10------10------10-|     x 4
5|--6----6-----6---------8-------8-------8----|
6|--------------------------------------------|

Maybe I'll get famous as man who can't be moved, 
And maybe you won't mean to but you'll see me on the news, 
And you'll come running to the corner... 
Cos you'll know it's just for you

this part before the last chorus :

1|--------------------------------------------|                 
2|-----3-----3-----------4-----4--------------|
3|---------------3-----------------3----------|
4|---5-----5-----------5-----5----------------|
5|-3-----3-----3-----3-----3-----3------------|
6|--------------------------------------------|

I'm the man who can't be moved
I'm the man who can't be moved... 

Cos if one day you wake up and find that you're missing me, 
And your heart starts to wonder where on this earth I can be, 
Thinking maybe you'd come back here to the place that we'd meet, 
And you'd see me waiting for you on the corner of the street.
[Repeat in background]

So I'm not moving... 
I'm not moving.

I'm not moving... 
I'm not moving.

Going back to the corner where I first saw you, 
Gonna camp in my sleeping bag not I'm not gonna move.
            
Submit corrections

comments powered by Disqus
↑ Back to top | The Script Tabs for The Man Who Can't Be Moved. Lyrics for acoustic guitar and electric guitar. 1 Tablatures and chords are parodies/interpretations of the original songs. You may use it for private study, scholarship, research or language learning purposes only