» » »

I'm Yours Tabs (ver.4)

Artists:  A B C D E F G H I J K L M N O P Q R S T U V W X Y Z # 

I'm Yours Tabs (ver.4)

The Script
Rating:
0/5 (0 votes)

Hard to play? Try these video lessons and learn fast.
                This is my first tab, I really like this song and tried hard to figure it out. It's 
missing the Solo part. But maybe someone can tab that for me, cause I' not good at tapping solos!

So here we go!


Intro and Verse and Refrain


----1-0-------3-----1-0--------3------------3-------------|
------------1---------------1------------1----------------|
--2-------0-------2-------0-------------0-----------------|
0---------------0----------------0h2-3--------------------|
--------3--------------3----------------------------------|
----------------------------------------------------------|


Tab 2 after first refrain:


------1----0-------0----1------1----0---------0----1----|
--------------1------------------------1----------------|
----2-------------------------2-------------------------|
-0------0-----0--0---0----------------------------------|
---------------------------3------3----3---3----3-------|
--------------------------------------------------------|

-----1-----0---------0---1----------0-----------0-------|
---------------1----------------3-------2----3----------|
---2-------------------------2--------------------------|
--------------------------------------------------------|
-1-----1-------1---1---1---0------0-----0--0---0--------|
--------------------------------------------------------|


Here the lyrics:

Verse1:

You touch these tired eyes of mine
and map my face out line by line
and somehow growing old feels fine

I listen close for I'm not smart
you wrap your thoughts in works of art
and they're hanging on the walls of my heart


Refrain:

I may not have the softest touch
I may not say the words as such
but though I may not look like much
but I'm yours

And though my edges may be rough
I never feel I'm quite enough
I may not seem like very much
but I'm yours

In Between Tab 2

Verse 2:

You heeled these scars over time
Embraced my soul
You loved my mind

You're the only angel in my life
The day news came my best friend died
My knees went week and you saw me cry
Say I'm still the soldier in your eyes

Refrain:

I may not have the softest touch
I may not say the words as such
And though I may not look like much
I'm yours

And though my edges may be rough
And never feel I'm quite enough
It may not seem like very much
But I'm yours

I may not have the softest touch
I may not say the words as such
I know I don't fit in that much
But I'm yours
            
Hard to play? Try these video lessons and learn fast. | Correct




comments powered by Disqus
↑ Back to top | Tablatures and chords are parodies/interpretations of the original songs. You may use it for private study, scholarship, research or language learning purposes only