» » »

The Script, If You See Kay Tabs (ver.1)

Artists:  A B C D E F G H I J K L M N O P Q R S T U V W X Y Z # 

If You See Kay Tabs (ver.1)

The Script Tabs
Rating:
5/5 (7 votes)
If You See Kay lessons Tabs too difficult? Try these video lessons and learn fast
                The Script - If You See Kay

Tuning : standard

i never learned theory {not yet anyhow} so names of chords, etc may be dodgy but i'll 
down what sounds correct.

Orer Of Song:
INTRO :
{guitar 1} - lead guitar
e|-6--8-6--5--6-5--3--5-3--3--3--5-------------------|
B|---------------------------------------------------|
G|---------------------------------------------------|
D|-5-------3-------2-------1--1--3-------------------|     x2
A|---------------------------------------------------|
E|---------------------------------------------------|
INTRO:
{guitar 2} - played along with 1st guitar lightly
e|---------------------------------------------------|
B|-----3--------3--------3--------3------------------|
G|---3---3----3---3----3---3----3--------------------|
D|-5--------3--------2--------1-----3----------------|     x2
A|---------------------------------------------------|
E|---------------------------------------------------|

BRIDGE:
If you see my friend
Doesn't matter where or when      x2
Tell me if you see Kay

e|-6--8-6--5--6-5--3--5-3--3--3--5-------------------|
B|---------------------------------------------------|
G|---------------------------------------------------|
D|-5-------3-------2-------1--1--3-------------------|     x2
A|---------------------------------------------------|
E|---------------------------------------------------|

VERSE 1:
e|-6--8-6--5--6-5--3--5-3--3--3--5-------------------|
B|---------------------------------------------------|
G|---------------------------------------------------|
D|-5-------3-------2-------1--1--3-------------------|    x4
A|---------------------------------------------------|
E|---------------------------------------------------|

She said I Won the battle but I lost the war
And now my head is sore
And If I try to sail back in
She's gon push me from the shore
Now I wont ever get the time of day
No way no way no.
Not for what I said but for what I didn't say
what I didn't say so

CHORUS: Use following chords {not sure of names - my bad!}

Ab   : 688766       C*  : 355633
A/Ab : 5887xx       C   : 355533
Gm   : 355333
D#   : x68886
G#   : 466544

 Ab       A/Ab          Gm                           D#
If you see Kay        Will you tell her           that I love her
 Ab       A/Ab          Gm                           D#
And if you see Kay    Let her know I want her     back
 Ab                 A/Ab
If she listens, say that I'm missing
   G#          Gm
Everything   about her
               C*                   C
Make sure you say  Im sweet FA with-out her .......If you see Kay

BRIDGE:

If you see my friend
Doesn't matter where or when      x2
Tell me if you see Kay

e|-6--8-6--5--6-5--3--5-3--3--3--5-------------------|
B|---------------------------------------------------|
G|---------------------------------------------------|
D|-5-------3-------2-------1--1--3-------------------|     x2
A|---------------------------------------------------|
E|---------------------------------------------------|

VERSE 2:
         {guitar 1}
e|-6--8-6--5--6-5--3--5-3--3--3--5-------------------|
B|---------------------------------------------------|
G|---------------------------------------------------|
D|-5-------3-------2-------1--1--3-------------------|    x4
A|---------------------------------------------------|
E|---------------------------------------------------|

         {guitar 2} - played lightly ...
e|---------------------------------------------------|
B|-----3--------3--------3--------3------------------|
G|---3---3----3---3----3---3----3--------------------|
D|-5--------3--------2--------1-----3----------------|     x4
A|---------------------------------------------------|
E|---------------------------------------------------|

She got me saying sorry through the door
She don't care anymore
She says it's too late now
Should have thought of this before
But I aint gonna take this as defeat
No way no way no
Cos I'm gonna shout this out to every one I
Every one I meet

CHORUS:
 Ab       A/Ab          Gm                           D#
If you see Kay        Will you tell her           that I love her
 Ab       A/Ab          Gm                           D#
And if you see Kay    Let her know I want her     back
 Ab                 A/Ab
If she listens, say that I'm missing
   G#          Gm
Everything   about her
               C*                   C
Make sure you say  Im sweet FA with-out her .......If you see Kay

Verse 3:
     {guitar 1 only}
e|-6--8-6--5--6-5--3--5-3--3--3--5-------------------|
B|---------------------------------------------------|
G|---------------------------------------------------|
D|-5-------3-------2-------1--1--3-------------------|     x2
A|---------------------------------------------------|
E|---------------------------------------------------|

Now I'm sitting here in disbelief
At how it truly broke my heart to have to watch her leave
But she was torn between what she wants and what she needs
They say you love someone enough you gotta set them free

     {guitar 1}
e|-6--8-6--5--6-5--3--5-3--3--3--5-------------------|
B|---------------------------------------------------|
G|---------------------------------------------------|
D|-5-------3-------2-------1--1--3-------------------|     x2
A|---------------------------------------------------|
E|---------------------------------------------------|

along with....{guitar 2} - lightly {for lyrics below}
e|---------------------------------------------------|
B|-----3--------3--------3--------3------------------|
G|---3---3----3---3----3---3----3--------------------|
D|-5--------3--------2--------1-----3----------------|     x2
A|---------------------------------------------------|
E|---------------------------------------------------|


See she was born to leave this town behind
Knew the truth but still she looked me in the eyes and lied
Saying its time to cut the ties
Time to say goodbye, So she left
But she never never left my mind.. never never left my mind..

CHORUS: Use following chords {not sure of names - my bad!}


 Ab       A/Ab          Gm                           D#
If you see Kay        Will you tell her           that I love her
 Ab       A/Ab          Gm                           D#
And if you see Kay    Let her know I want her     back
 Ab                 A/Ab
If she listens, say that I'm missing
   G#          Gm
Everything   about her
               C*                   C
Make sure you say  Im sweet FA with-out her .......If you see Kay

BRIDGE:

If you see my friend
Doesn't matter where or when      x2
Tell me if you see Kay

e|-6--8-6--5--6-5--3--5-3--3--3--5-------------------|
B|---------------------------------------------------|
G|---------------------------------------------------|
D|-5-------3-------2-------1--1--3-------------------|     x2
A|---------------------------------------------------|
E|---------------------------------------------------|
            

comments powered by Disqus
↑ Back to top | The Script Tabs for If You See Kay. Lyrics for acoustic guitar and electric guitar. Tablatures and chords are parodies/interpretations of the original songs. You may use it for private study, scholarship, research or language learning purposes only