» » »

The Script, Hall Of Fame Tabs (ver.1)

Artists:  A B C D E F G H I J K L M N O P Q R S T U V W X Y Z # 

Hall Of Fame Tabs (ver.1)

The Script Tabs
 Rating:
4/5 (4 votes)
Hall Of Fame lessons Tabs too difficult? Try these video lessons and learn fast
1
                
This is the piano intro played on guitar, it is pretty accurate i played it on piano 
before converting it to guitar. Enjoy :).

[Note i have tabbed the piano without a capo, the chords are played with a capo on the 
3rd fret]

e|------------------------------------------------------------------|
B|----------------------------------16--------------16--------------|
G|--15--14--15--12--15--12--15--12------12--15--12------12--15------|
D|--------------------------------------------------------------15--|
A|------------------------------------------------------------------|
E|------------------------------------------------------------------|

e|------------------------------------------------------------------|
B|--15------16------18--13------13------18------13------18----------|
G|--------------------------15------15------15------15------15------|
D|------15------15--------------------------------------------------|
A|------------------------------------------------------------------|
E|------------------------------------------------------------------|

Repeat the intro 4 times.
(this part goes over the piano in the intro just added it for anyone interested)
e|------------------------------------------------------------------|
B|------------------------------------------------------------------|
G|--10--15--14--12~~~~----------12~~~~-----10-----------------------|
D|------------------------------------------------------------------|
A|--08--13--12--10~~~~----------10~~~~-----08-----------------------|
E|------------------------------------------------------------------|

Capo: 3rd fret

{Verse 1}
                       Em
Yeah, You could be the greatest
               C
You can be the best
               G                         D
You can be the king kong banging on your chest
                   Em
You could beat the world
                   C
You could beat the war
                  G                      D
You could talk to God, go banging on his door
                   Em
You can throw your hands up
               C
You can be the clock
               G
You can move a mountain
              D
You can break rocks
             Em
You can be a master
               C
Don't wait for luck
         G                D
Dedicate yourself and you can find yourself

{Chorus 1}
                        Em   C   G
Standing in the hall of fame
D                               Em   C   G
And the world's gonna know your name
D                                 Em   C   G
Cause you burn with the brightest flame
D                               Em   C   G
And the world's gonna know your name
G                                 D
And you'll be on the walls of the hall of fame

{Verse 2}
                 Em
You could go the distance
                  C
You could run the mile
               G                            D
You could walk straight through hell with a smile
                 Em
You could be the hero
                  C
You could get the gold
                 G                          D
Breaking all the records that thought never could be broke
               Em
Do it for your people
               C
Do it for your pride
            G                      D
Never gonna know if you never even try
               Em
Do it for your country
              C
Do it for you name
                         G
Cause there's gonna be a day

{Chorus 2}

D                                   Em   C   G
When you're standing in the hall of fame
D                               Em   C   G
And the world's gonna know your name
D                                 Em   C   G
Cause you burn with the brightest flame
D                               Em   C   G
And the world's gonna know your name
G                                 D
And you'll be on the walls of the hall of fame

     Em    C        G     D        Em    C        G     D
Be a champion, Be a champion, Be a champion, Be a champion

Em              C            G                       D
Be students, Be teachers, Be politicians, Be preachers
Em               C           G                      D
Be believers, Be leaders, Be astronauts, Be champions, Be true seekers
Em              C            G                       D
Be students, Be teachers, Be politicians, Be preachers
Em               C           G                      D
Be believers, Be leaders, Be astronauts, Be champions

{Repeat Chorus 1}

{Repeat Verse 1}

{Outro}

Standing in the Hall of Fame!
e|------------------------------------------------------------------|
B|----------------------------------16--------------16--------------|
G|--15--14--15--12--15--12--15--12------12--15--12------12--15------|
D|--------------------------------------------------------------15--|
A|------------------------------------------------------------------|
E|------------------------------------------------------------------|

e|------------------------------------------------------------------|
B|--15------16------18--13------13------18------13------18----------|
G|--------------------------15------15------15------15------15------|
D|------15------15--------------------------------------------------|
A|------------------------------------------------------------------|
E|------------------------------------------------------------------|

And that's the whole song, hope you enjoyed also this is my very first tab so please 
leave feedback I want to know if I did good or bad :P
The Intro can also be played during the chorus if you prefer :).
Feedback and questions are appreciated by email! :)
            
Submit corrections

comments powered by Disqus
↑ Back to top | The Script Tabs for Hall Of Fame. Lyrics for acoustic guitar and electric guitar. 1 Tablatures and chords are parodies/interpretations of the original songs. You may use it for private study, scholarship, research or language learning purposes only