» » »

The Script, Exit Wounds Tabs (ver.1)

Artists:  A B C D E F G H I J K L M N O P Q R S T U V W X Y Z # 

Exit Wounds Tabs (ver.1)

The Script Tabs
 Rating:
4.2/5 (5 votes)
Exit Wounds lessons Tabs too difficult? Try these video lessons and learn fast
1
                The Script


Intro
e|---5------------8---------------5-------------1-------------------------|
B|---5------------8---------------5-------------1-------------------------|
G|---5---X16------10---X16--------7---X16-------2---X16-------------------|x3
D|---7------------10--------------7-------------3-------------------------|
A|---7------------8---------------5-------------3-------------------------|
E|---5------------------------------------------1-------------------------|


Chorus
Gtr 1
e|---3------------5---------------8--------------5------------------------|
B|---5------------5---------------8--------------5------------------------|
G|---5------------5---------------10-------------7------------------------|x4
D|---5------------7---------------10-------------7------------------------|
A|---3------------7---------------8--------------5------------------------|
E|----------------5-------------------------------------------------------|


Gtr 2
e|---10---10--8---8--7---8---8------10---10--8---8---13---13-12---12p8----|
B|-8----8-------8------8---8------8----8-------8---8----8-------8------8--|
G|------------------------------------------------------------------------|x2
D|------------------------------------------------------------------------|
A|------------------------------------------------------------------------|
E|------------------------------------------------------------------------|

Gtr 2 chorus part 2
e|------------------------------------------------------------------------|
B|-3333--5555--666--8888--666--888--101010--121212--1313--1515------------|
G|------------------------------------------------------------------------|x2
D|------------------------------------------------------------------------|
A|------------------------------------------------------------------------|
E|------------------------------------------------------------------------|

Gtr 1
interlude
e|---5------------8---------|
B|---5------------8---------|
G|---5---X16------10---X16--|x1
D|---7------------10--------|
A|---7------------8---------|
E|---5----------------------|

Gtr 1
Verse
e|---5------------8---------------5-------------1-------------------------|
B|---5------------8---------------5-------------1-------------------------|
G|---5---X16------10---X16--------7---X16-------2---X16-------------------|x2
D|---7------------10--------------7-------------3-------------------------|
A|---7------------8---------------5-------------3-------------------------|
E|---5------------------------------------------1-------------------------|


Chorus
Gtr 1
e|---3------------5---------------8--------------5------------------------|
B|---5------------5---------------8--------------5------------------------|
G|---5------------5---------------10-------------7------------------------|x4
D|---5------------7---------------10-------------7------------------------|
A|---3------------7---------------8--------------5------------------------|
E|----------------5-------------------------------------------------------|


Gtr 2
e|---10---10--8---8--7---8---8------10---10--8---8---13---13-12---12p8----|
B|-8----8-------8------8---8------8----8-------8---8----8-------8------8--|
G|------------------------------------------------------------------------|x2
D|------------------------------------------------------------------------|
A|------------------------------------------------------------------------|
E|------------------------------------------------------------------------|

Gtr 2 chorus part 2
e|------------------------------------------------------------------------|
B|-3333--5555--666--8888--666--888--101010--121212--1313--1515------------|
G|------------------------------------------------------------------------|x2
D|------------------------------------------------------------------------|
A|------------------------------------------------------------------------|
E|------------------------------------------------------------------------|


Gtr 1
Bridge

e|----3------------5-----------1---------------------------|
B|----3------------5-----------1---------------------------|
G|----4------------5-----------2---------------------------|x4
D|----5------------7-----------3---------------------------|
A|----5------------7-----------3---------------------------|
E|----3------------5-----------1---------------------------|

Gtr 2
Bridge

e|-----13----13--12------|       |--------13-----13--12-----15----15--12--|       
b|--13----13--------x2---|       |-----13-----13----------13----13--------|
G|-----------------------|x2     |----------------------------------------|x1
D|-----------------------|       |----------------------------------------|
A|-----------------------|       |----------------------------------------|
E|-----------------------|       |----------------------------------------|

Gtr 1
interlude
e|---5------------8---------|
B|---5------------8---------|
G|---5---X16------10---X16--|x1
D|---7------------10--------|
A|---7------------8---------|
E|---5----------------------|


Chorus/outro
Gtr 1
e|---3------------5---------------8--------------5------------------------|
B|---5------------5---------------8--------------5------------------------|
G|---5------------5---------------10-------------7------------------------|x7
D|---5------------7---------------10-------------7------------------------|
A|---3------------7---------------8--------------5------------------------|
E|----------------5-------------------------------------------------------|


Gtr 2
e|---10---10--8---8--7---8---8------10---10--8---8---13---13-12---12p8----|
B|-8----8-------8------8---8------8----8-------8---8----8-------8------8--|
G|------------------------------------------------------------------------|x7
D|------------------------------------------------------------------------|
A|------------------------------------------------------------------------|
E|------------------------------------------------------------------------|

Gtr 2 chorus part 2
e|------------------------------------------------------------------------|
B|-3333--5555--666--8888--666--888--101010--121212--1313--1515------------|
G|------------------------------------------------------------------------|x2
D|------------------------------------------------------------------------|
A|------------------------------------------------------------------------|
E|------------------------------------------------------------------------|
            
Submit corrections

comments powered by Disqus
↑ Back to top | The Script Tabs for Exit Wounds. Lyrics for acoustic guitar and electric guitar. 1 Tablatures and chords are parodies/interpretations of the original songs. You may use it for private study, scholarship, research or language learning purposes only