» » »

Dead Man Walking Tabs (ver.1)

Artists:  A B C D E F G H I J K L M N O P Q R S T U V W X Y Z # 

Dead Man Walking Tabs (ver.1)

The Script
Rating:
5/5 (6 votes)

Hard to play? Try these video lessons and learn fast.
                The single notes are played throughout the song. (I did not write it down for every 
single verse/chorus!) But it kinda does not sound that good if you are playing this with 
only one guitar, so I wrote down the chords for you aswell. (It sounds much better 
with two or more guitars :P)


Capo on 3rd fret

All numbers are according to the capo!


Intro &  Verse

Guitar 1

e|-------------------------------------|
B|-------------------------------------|
G|--------------------------| |repeat--|
D|-7--7--5-5-5-------------------------|
A|--------------3--3--5-5-5------------|
E|-------------------------------------|
Guitar 1 starts on the the first syllable of talking (on TALK)

Guitar 2

e|------------------------------------------------------|
B|------------------------------------------------------|
G|--5h7-5h7-5h7-5h7-5h7--5h7-5h7-5h7-5h7-5h7-| |repeat--|
D|------------------------------------------------------|
A|------------------------------------------------------|
E|------------------------------------------------------|
Guitar 2 starts on the the second syllable of talking (on ING)

->  So the guitars are offset!

If you wanna play the chords:

   Aadd9 G  C  Asus
e|---0---3--0----0--|
B|---0---0--1----3--|
G|---2---0--0----2--|
D|---2---0--2----0--|
A|---0---2--3----0--|
E|---0---3--0----0--|

                  Aadd9           G
I hear the angels talking talking talking
                   C               Asus
Now I'm a dead man walking walking walking
                  Aadd9           G
I hear the angels talking talking talking
                  C    Asus
Now I'm a dead man

|repeat|

          Aadd9              G                  C   Asus
I see you standing there but you're already gone
            Aadd9                G                C   Asus
I'm holding your hand but you're barely holding on
           Aadd9            G                       C   Asus
I'm kissin your lips but it just don't feel the same
     Aadd9                G                    C   Asus
Am I dead there now, left living with the blame


                     Aadd9           G
Oh I hear the angels talking talking talking
                                   Asus
Now I'm a dead man walking walking walking


Chorus

Guitar 1

e|------10---------10---------10---------10------------------|
B|-8-10----12-8-10----12-8-10----12-8-10----12---------------|
G|---------------------------------------------| |repeat 4x--|
D|-----------------------------------------------------------|
A|-----------------------------------------------------------|
E|-----------------------------------------------------------|

or

e|------10-7-------10-7-------10-7-------10-7----------------|
B|-8-10------8-10-------8-10-------8-10----------------------|
G|---------------------------------------------| |repeat 4x--|
D|-----------------------------------------------------------|
A|-----------------------------------------------------------|
E|-----------------------------------------------------------|

Guitar 2

     G   D  Em/Em7  C/Cadd9
e|---3---2--0--0----0---0-|
B|---0---3--0--3----1---1-|
G|---0---2--0--0----0---0-|
D|---0---0--2--2----2---2-|
A|---2---0--2--2----3---0-|
E|---3---0--0--0----0---0-|

        G                             D
Already broken, already gone, already know you're moving on
          Em/Em7               C/Cadd9
I'm a breathing, talking, dead man, walking
        G                             D
Already see it, in your face, already someone, in my place
          Em/Em7               C/Cadd9
I'm a breathing, talking, dead man, walking


->  Em7 & Cadd9 seem to work better but decide yourself what you like better!

                  G
I hear the angels talking talking talking
                   D
Now I'm a dead man walking walking walking
                  Em/Em7
I hear the angels talking talking talking
                  C/Cadd9
Now I'm a dead man


Verse

             Aadd9              G                 C/Am7   Asus
We're in the same room just one million miles away
               Aadd9            G               C/Am7       Asus
With all these books around but we ain't go two words to say
       Aadd9         G                    C/Am7  Asus
Am I a dead man now, left living with the shame? I'm ..

        G                             D
Already broken, already gone, already know you're moving on
          Em/Em7               C/Cadd9
I'm a breathing, talking, dead man, walking
        G                             D
Already see it, in your face, already someone, in my place
          Em/Em7               C/Cadd9
I'm a breathing, talking, dead man, walking

G         D                Em/Em7              C/Cadd9
Ohhhhh oh ohhhhh I'm a breathing, talking dead man walking

Aadd9  G   D     Cadd9
         Ahh  Ah Ah

                  Aadd9
I hear the angels talking talking talking
                   G
Now I'm a dead man walking walking walking

                  D
I hear the angels talking talking talking
                  Cadd9
Now I'm a dead man

        G                             D
Already broken, already gone, already know you're moving on
          Em/Em7               C/Cadd9
I'm a breathing, talking, dead man, walking
        G                             D
Already see it, in your face, already someone, in my place
          Em/Em7               C/Cadd9
I'm a breathing, talking, dead man, walking

G         D                Em/Em7              C/Cadd9
Ohhhhh oh ohhhhh I'm a breathing, talking dead man walking

G         D                Em/Em7              C/Cadd9
Ohhhhh oh ohhhhh I'm a breathing, talking dead man walking

                  G
I hear the angels talking talking talking
                   D
Now I'm a dead man walking walking walking
                  Em/Em7
I hear the angels talking talking talking
                  C/Cadd9
Now I'm a dead man

|repeat 2x|

                  G
Now I'm a dead man
            
Hard to play? Try these video lessons and learn fast. | Correct




comments powered by Disqus
↑ Back to top | Tablatures and chords are parodies/interpretations of the original songs. You may use it for private study, scholarship, research or language learning purposes only