» » »

Breakeven Tabs (ver.7)

Artists:  A B C D E F G H I J K L M N O P Q R S T U V W X Y Z # 

Breakeven Tabs (ver.7)

The Script
Rating:
0/5 (0 votes)

Hard to play? Try these video lessons and learn fast.
                -----------------------------------------------------------------------------
-----------------------------------------------------------------------------

Hey everyone, it's me again. I haven't posted in a few months; sorry about that. Anyway,
i'm back with another tab for all of you guys and girls out there who're interested or
accepts this. Thanks! Enjoy!

Tuning: Standard

Intro:
       EbM7        Bb      F      Gm7
e|--------------------------------------|
B|--------------------------------------|
G|----7--7----7--7--7---3p2--2----3--3--| (Repeat, when the drums comes in,
D|----8--8----8--8--8------3------3--3--|  strum the chords if you want.)
A|--6--6-6------------------------------|
E|----------6--6-6-6-6--1--1-1--3--3----|

Verse:

e|--------------------------------------|
B|--------------------------------------|
G|---3---3---3--3-------3--3--3--3------| (Repeat)
D|--------------------------------------|
A|--------------------1--1--3--3--------|
E|--3--3---1--1-------------------------|

Chorus:

Same chords as intro. You can either strum the chords or do the intro riff 'cos when the
band plays it, one guitar does the rhythm(chords) and either another guitar does the
intro or a bass does it.

Bridge:
                                                                  downstrum
                                                                  rhythm
e|------------------------------------------------------------|--|----------|
B|-------------------------------------------------------(6)--|--|-6----6---|
G|---2h3-2h3---5-7---7---7-8-7\\----2h3-2h3-5-5-7---7--7------|2x|-7-or-7---|
D|------------------------------------------------------------|--|-8----5---|
A|-----------------------6---------------------------6--------|--|-6----6---|
E|---3------/5---6-6----------------3-------5---6-6-----------|--|----------|

So there you have it, just listen to the track for the rhythm/timings and order. If
there are mistakes/corrections you want to raise, please feel free to comment and 
modify. Thanks!


************************************

| /   slide up
| \   slide down
| h   hammer-on
| p   pull-off
| ~   vibrato
| +   harmonic
| x   Mute note
| b   Bend
| pb  Pre-bend
| br  Bend release
| pbr Pre-bend release
| brb Bend release bend

************************************
            
Hard to play? Try these video lessons and learn fast. | Correct




comments powered by Disqus
↑ Back to top | Tablatures and chords are parodies/interpretations of the original songs. You may use it for private study, scholarship, research or language learning purposes only