>
 >
Yes, Even Stars Break

Yes, Even Stars Break Guitar Tabs

The Scene Aesthetic - Yes, Even Stars Break chords, tabs, tablatures, lyrics

Guitar lessons | Add/correct | Request | Top 50 tabs Artists:  A B C D E F G H I J K L M N O P Q R S T U V W X Y Z 0-9

Yes, Even Stars Break Guitar Tabs – The Scene Aesthetic

CD, Sheet music, Poster

Do you like Yes, Even Stars Break? Share with your friends now
Tabs
The Scene Aesthetic - Yes, Even Stars Break





okay so this tab isnt that easy but the basic chords are so here we go



tuning: standard


notes:

* - palm mute 



i'll show u some basic chords so u can figure some parts out for yourself..





"alone at last...."

[use all downstrokes]
E--------------------------0----------------------------------|
B-----------------5--------0----------------------------------|x2
G-1---------------6--------4----------------------------------|
D-2---------------6--------2----------------------------------|
A-2---------------4--------0----------------------------------|
E-0-----------------------------------------------------------|
* palm mute all of this.. let the last chord ring on the 2nd time





[strumming not shown] its pretty easy though
E--------------------------0----------------------------------|
B-----------------5--------0----------------------------------|x2
G-1---------------6--------2----------------------------------|
D-2---------------6--------2----------------------------------|
A-2---------------4--------0----------------------------------|
E-0-----------------------------------------------------------|











Chorus:

[strumming not shown] once again..all this stumming is pretty easy.. :]
E-0---------------0---------------0------------------------------|
B-0---------------5---------------0------------------------------|
G-2---------------6---------------2------------------------------|
D-2---------------6---------------2------------------------------|
A-0---------------4---------------0------------------------------|
E----------------------------------------------------------------|





E-0---------------0---------------0---------------0-0-0-----0--------|
B-0---------------5---------------0---------------0-0-0-----0--------|
G-2---------------6---------------2---------------2-2-2-----2--------|
D-2---------------6---------------2---------------2-2-2-----2--------|
A-0---------------4---------------0---------------0-0-0-----0--------|
E--------------------------------------------------------------------|
                                                  * * *
                                                play this @ the end before the verse                     
                                                and palm mute those 1st 3 chords



verse [strumming not shown again] its so easy though.
E--------------------------0----------------------------------|
B-----------------5--------0----------------------------------|x2
G-1---------------6--------2----------------------------------|
D-2---------------6--------2----------------------------------|
A-2---------------4--------0----------------------------------|
E-0-----------------------------------------------------------|


verse part 2
[strumming not included...]
E-0--------0---------------0----------------------------------|
B-0--------5---------------0----------------------------------|x4
G-4--------6---------------2----------------------------------|
D-4--------6---------------2----------------------------------|
A-2--------4---------------0----------------------------------|
E-------------------------------------------------------------|





Chorus:

[strumming not shown] once again..all this stumming is pretty easy.. :]
E-0---------------0---------------0------------------------------|
B-0---------------5---------------0------------------------------|
G-2---------------6---------------2------------------------------|
D-2---------------6---------------2------------------------------|
A-0---------------4---------------0------------------------------|
E----------------------------------------------------------------|

                      

on the last time before the bridge strum this once and let ring:

E-0---------
B-0-----------
G-2-----------
D-2-----------
A-0-----------
E-------------




bridge: [strumming not shown but its easy]
E-0--0--0-0-0---0-----------------------------------------|
B-0--0--0-0-0---0-----------------------------------------|x8
G-9--8--9-8-9---0-----------------------------------------|
D-9--9--9-9-9---2-----------------------------------------|
A-7--7--7-7-7---2-----------------------------------------|
E-0--0--0-0-0---0-----------------------------------------|
                 STRUM THIS CHORD THE LAST TIME AND BUILD IT UP TO THE CHORUS!




Chorus:

[strumming not shown] once again..all this stumming is pretty easy.. :]
E-0---------------0---------------0------------------------------|
B-0---------------5---------------0------------------------------|
G-2---------------6---------------2------------------------------|x4
D-2---------------6---------------2------------------------------|
A-0---------------4---------------0------------------------------|
E----------------------------------------------------------------|



thats roughly the song




if i made any mistakes please tell me.. i'm pretty sure its 90-95% correct 


enjoy!





Comments


Popular The Scene Aesthetic tabs & chords
Alamo Is No Place For Dancing 1 Chords
Never Gonna Let This Go Chords
A Formal Introduction Tabs
Dear Time Traveler Tabs
Don't Be That Note Tabs
Heavy Lies The Crown Tabs
Humans Intro Tabs
Paper Hearts Tabs
The Man I Am Tabs
Never Gonna Let This Go Ukulele


Song lyrics



↑ Back to top | Tablatures and chords are parodies/interpretations of the original songs. You may use it for private study, scholarship, research or language learning purposes only
© 2014 AZChords.com Contact us | Privacy policy | DMCA | Add/correct tabs | Request tabs | Top 50 tabs