» » »

The Scene Aesthetic, To The Steadfast Tabs (ver.1)

Artists:  A B C D E F G H I J K L M N O P Q R S T U V W X Y Z # 

To The Steadfast Tabs (ver.1)

The Scene Aesthetic Tabs
 Rating:
3.4/5 (9 votes)
To The Steadfast lessons Tabs too difficult? Try these video lessons and learn fast
                I kind of left a few blank parts because most of this song will be common sense after 
figure out the 3 main riffs.

This is not going to be perfect because:
1) It is my first tab.
2) Havent taken the time to figure out the second guitar yet.  When I get that i'll put 
up asap.

~ Ring
x Finger mute

 Figure out the strumming out yourself.  It shouldnt be too hard after you figure out 
chords.

[INTRO/VERSE]
(Believe me...This isnt quite what I wanted...)
e|----3-------3-------3--------------------------------------------------|
B|----3-------3-------3--------------------------------------------------|
G|----0-------0-------0--------------------------------------------------|
D|----0-------2-------2--------------------------------------------------| x6
A|----2-------0-------3--------------------------------------------------|
E|----3-------X-------X--------------------------------------------------|

[VERSE 2]
(You've got a good head on your shoulders, but you've waited way too long...)
e|----3-------3-------3--------------------------------------------------|
B|----3-------3-------3--------------------------------------------------|
G|----0-------0-------0--------------------------------------------------|
D|----2-------3-------2--------------------------------------------------| x2
A|----2-------2-------3--------------------------------------------------|
E|----0-------0-------X--------------------------------------------------|

[CHORUS]
('Cause we've got the answers, please stop running around...)
e|----3-------3-------3--------------------------------------------------|
B|----3-------3-------3--------------------------------------------------|
G|----0-------0-------0--------------------------------------------------|
D|----2-------2-------0--------------------------------------------------| x2
A|----3-------2-------2--------------------------------------------------|
E|----X-------0-------3--------------------------------------------------|

[PLAY CHORUS AGAIN BUT WITH THIS AT THE END]
                              (We know exactly what you're going through...)
e|----3-------3-------3-------3------------------------------------------|
B|----3-------3-------3-------3------------------------------------------|
G|----0-------0-------0-------0------------------------------------------|
D|----2-------2-------0-------2------------------------------------------| x2
A|----3-------2-------2-------2------------------------------------------|
E|----X-------0-------3-------0------------------------------------------|

[VERSE]
            (Think for yourself why you cant even think straight)
e|----3------3-------3-------3-------------------------------------------|
B|----3------3-------3-------3-------------------------------------------|
G|----0------0-------0-------0-------------------------------------------|
D|----2------0-------2-------2-------------------------------------------| x3
A|----2------2-------0-------3-------------------------------------------|
E|----0------3-------X-------X-------------------------------------------|

[CHORUS]
('Cause we've got the answers, please stop running around...)
e|----3-------3-------3--------------------------------------------------|
B|----3-------3-------3--------------------------------------------------|
G|----0-------0-------0--------------------------------------------------|
D|----2-------2-------0--------------------------------------------------| x2
A|----3-------2-------2--------------------------------------------------|
E|----X-------0-------3--------------------------------------------------|

[PLAY CHORUS AGAIN BUT WITH THIS AT THE END]
                              (We know exactly what you're going through...)
e|----3-------3-------3-------3------------------------------------------|
B|----3-------3-------3-------3------------------------------------------|
G|----0-------0-------0-------0------------------------------------------|
D|----2-------2-------0-------2------------------------------------------| x2
A|----3-------2-------2-------2------------------------------------------|
E|----X-------0-------3-------0------------------------------------------|

[BRIDGE]
(You know you hate the things that you have seen...)
e|----3-------3-------3--------------------------------------------------|
B|----3-------3-------3--------------------------------------------------|
G|----0-------0-------0--------------------------------------------------|
D|----0-------2-------2--------------------------------------------------| x4
A|----2-------2-------3--------------------------------------------------|
E|----3-------0-------X--------------------------------------------------|

[VERSE 2]
(And just so you know I've been building these things...)
e|----3-------3-------3--------------------------------------------------|
B|----3-------3-------3--------------------------------------------------|
G|----0-------0-------0--------------------------------------------------|
D|----2-------3-------2--------------------------------------------------| x2
A|----2-------2-------3--------------------------------------------------|
E|----0-------0-------X--------------------------------------------------|

[MODIFIED CHORUS]
('Cause we've got the answers please stop running around...)
e|----X-------3-------3--------------------------------------------------|
B|----X-------3-------3--------------------------------------------------|
G|----X-------0-------0--------------------------------------------------|
D|----X-------2-------0--------------------------------------------------| x1
A|----X-------2-------2--------------------------------------------------|
E|----X-------0-------3--------------------------------------------------|

e|----3-------3-------3--------------------------------------------------|
B|----3-------3-------3--------------------------------------------------|
G|----0-------0-------0--------------------------------------------------|
D|----2-------2-------0--------------------------------------------------| x2
A|----3-------2-------2--------------------------------------------------|
E|----X-------0-------3--------------------------------------------------|

[VERSE]
e|----3-------3-------3--------------------------------------------------|
B|----3-------3-------3--------------------------------------------------|
G|----0-------0-------0--------------------------------------------------|
D|----0-------2-------2--------------------------------------------------| x1
A|----2-------0-------3--------------------------------------------------|
E|----3-------X-------X--------------------------------------------------|
            
Submit corrections

comments powered by Disqus
↑ Back to top | The Scene Aesthetic Tabs for To The Steadfast. Lyrics for acoustic guitar and electric guitar. Tablatures and chords are parodies/interpretations of the original songs. You may use it for private study, scholarship, research or language learning purposes only