» » »

Alamo Is No Place For Dancing Tabs (ver.2)

Artists:  A B C D E F G H I J K L M N O P Q R S T U V W X Y Z # 

Alamo Is No Place For Dancing Tabs (ver.2)

The Scene Aesthetic
Rating:
5/5 (1 vote)

Tabs too difficult? Try these video lessons and learn fast.
                Hey, there's a couple good tabs for the song out there, but noone had the solo at the 
so here it is...

In the song, they play it once thru, then he starts in singing "Spent a lot of my time 
to make this alright..."  It's real easy if u just listen to it once to hear when to play 
how long to play.  Thanks for using my tab, enjoy!

e[------------10----------------10----------]
B[------10----------10----10----------10----]
G[---12----12----12----12----12----12-------]
D[------------------------------------------]
A[------------------------------------------]
E[------------------------------------------]

e[------------10----------------10----------]
B[------10----------10----10----------10----]
G[---11----11----11----11----11----11-------]
D[------------------------------------------]
A[------------------------------------------]
E[------------------------------------------]

e[---------7-----------7-------]
B[-----8-------8---8-------8---]
G[---9---9---9---9---9---9-----]
D[-----------------------------]
A[-----------------------------]
E[-----------------------------]

e[---------5-----------5-------]
B[-----5-------5---5-------5---]
G[---7---7---7---7---7---7-----]
D[-----------------------------]
A[-----------------------------]
E[-----------------------------]
            
Tabs too difficult? Try these video lessons and learn fast.




comments powered by Disqus
↑ Back to top | Tablatures and chords are parodies/interpretations of the original songs. You may use it for private study, scholarship, research or language learning purposes only