» » »

Alamo Is No Place For Dancing Tabs (ver.3)

Artists:  A B C D E F G H I J K L M N O P Q R S T U V W X Y Z # 

Alamo Is No Place For Dancing Tabs (ver.3)

The Scene Aesthetic
Rating:
0/5 (0 votes)

Tabs too difficult? Try these video lessons and learn fast.
                (1)
What's up TSA fans? This is my version of The Alamo is no place for dancing by The Scene Aesthetic
There are alot of versions for this song so I just thought that I should make my own 
Oh and btw,
this is my first tab so I hope its not that bad. if you need anything my email is 
Enjoy!

I'm going to use numbers becuase I'm not that good with names.

1	2	3	4	5	6	7
------	------	------	------	--3---	--5---	------|
--7---	--3---	--3---	--3---	--3---	--5---	------|
--7---	--2---	--2---	--2---	--4---	--6---	--7---|
------	------	------	------	--5---	--7---	--7---|
------	------	------	--2---	--5---	--7---	--x---|
--7---	--2---	--3---	------	--3---	--5---	--7---|


-------------------------]    --------------------------------------------|
-------3---3-----3-------]    ----3p2-------3p2-------3p2---------2-------|
-------------------0h2---] x3 --------2---------2---------2-------2-------|
----0----0---0---------0-]    ----------0---------0---------0-----0-------|
-------------------------]    --------------------------------------------|
--2------------3---------]    --------------------------------------------|

1                          2                                         3         2         
              3
   Sing me a song, tell me about the things that you're dealing with lately, I don't 
how you could.

1                          2       3                       1         2                   
    3
   Sing to me lies let them linger inside of me, give me a reason to stay with you just 
me know.

            4         2          3
   So I can run away faster than ever before.

   7                                2                                   5
   Counting down all the hours I've spent here drowning in all of your lies, dear

     4           2              3
   I wish that I could have been warned.

   7                                             2                                       
5
   So I'll tell them to steer clear of Texas, to warn them and let them all know what's 
store.

      4            2            3
   To let them all know what's in store.

-------------------------]    --------------------------------------------|
-------3---3-----3-------]    ----3p2-------3p2-------3p2---------2-------|
-------------------0h2---] x3 --------2---------2---------2-------2-------|
----0----0---0---------0-]    ----------0---------0---------0-----0-------|
-------------------------]    --------------------------------------------|
--2------------3---------]    --------------------------------------------|

                1
   Well I can't tell you how much I'd love to take back every word I said.

           2                          3
   Give me every reason to ignore the lies you fed me then.

                1                                   4     2
   Well, I'm so sorry dear I must escape before you suffocate me.

   1
   And I waited patiently as long as I could.

             2                      3                      4              2         3
   Fought so hard for a girl that I loved but who later on turned out to be someone I 
knew.


 7                                                                   5
   Counting down all the hours I've spent here drowning in all of your lies, dear

     4            2             3
   I wish that I could have been warned.

            7                                    2                                       
5
   So I'll tell them to steer clear of Texas, to warn them and let them all know what's 
store.

      4            2             3
   To let them all know what's in store.
                       (you're a whore) (Depending on if you want to use it in your 
location.)


Guitar 2 (solo and background)
---------10----------10-----------10-----------10--------7----------7-----------5-----------5-------]
----10-------10--10------10---10------10--10--------8-------8---8-------8---5-------5---5-------5---]
--12--12---12--12--12--12---11--11--11--11---11---9---9---9---9---9---9---7---7---7---7---7---7-----]
----------------------------------------------------------------------------------------------------]
----------------------------------------------------------------------------------------------------]
----------------------------------------------------------------------------------------------------]


Guitar 1

 3                     2                                4                      2
   Spending alot of my time trying to make this alright, trying to make this alright.

 3                     2                                4                      2
   Spending alot of my time trying to make this alright, trying to make this alright.

 3                     2                                4                      2
   Spending alot of my time trying to make this alright, trying to make this alright.

 3                     2                                4                      2
   Spending alot of my time trying to make this alright, trying to make this alright.

3                     2                                4                      2
   Spending alot of my time trying to make this alright, trying to make this alright.

 3                 2      4                         2
   You'll be alone now. I hope this is all that you wanted.

 3                 2      4                         2
   You'll be alone now. I hope this is all that you wanted.
            
Tabs too difficult? Try these video lessons and learn fast.


comments powered by Disqus
↑ Back to top | Tablatures and chords are parodies/interpretations of the original songs. You may use it for private study, scholarship, research or language learning purposes only