» » »

The Scene Aesthetic, So Peter, You've Become A Pirate Tabs (ver.2)

Artists:  A B C D E F G H I J K L M N O P Q R S T U V W X Y Z # 

So Peter, You've Become A Pirate Tabs (ver.2)

The Scene Aesthetic Tabs
 Rating:
4/5 (4 votes)
So Peter, You've Become A Pirate lessons Tabs too difficult? Try these video lessons and learn fast
                --------------------------------------------------------
"So Peter, You've Become a Pirate" - The Scene Aesthetic
--------------------------------------------------------

Tuning: eBGDAE

     INTRO/OUTRO

e|-------------0-0-0--|
B|---3---3-----3-3-3--|
G|----2---2----2-2-2--|
D|------0------0-0-0--|
A|--2----------2-2-2--|
E|----------0~--------|
 

     VERSE               Post-VERSE

e|--0>----0>--0>--|  e|--0>--0>--0>----|
B|--3>----3>--3>--|  B|--3>--3>--3>----|
G|--2>----2>--2>--|  G|--2>--2>--2>----|
D|--0>----0>--0>--|  D|--0>--0>--0>----|
A|--2>----x>--x>--|  A|--2>--x>--x>----|
E|--------2>--3>--|  E|------2>--3>----|


     Pre-CHORUS         CHORUS
 
e|--0>--0>--0>--|  |--0>--0>--0>--0>--|
B|--3>--3>--3>--|  |--3>--3>--3>--3>--|
G|--2>--2>--2>--|  |--2>--2>--2>--2>--|
D|--0>--0>--0>--|  |--0>--0>--0>--0>--|
A|--2>--0>--0>--|  |--0>--2>--0>--0>--|
E|------0>--3>--|  |--3>------2>--3>--|


     Post-CHORUS
 
e|----------------|
B|----------------|
G|--4--7----------|
D|--4--7--5--4-0--|
A|--2--5--5--5-0--|
E|--2--5--3--2-0--|


     BREAKDOWN                    BRIDGE
 
e|--------------------------| e|-----------|
B|--------------------------| B|-----------|
G|--4>-4-4-4---7>-6>-6>-7>--| G|--4>---7>--|
D|--4>-4-4-4---7>-7>-7>-7>--| D|--4>---7>--|
A|--2>-0-2-0---5>-5>-5>-5>--| A|--2>---5>--|
E|--2>-2-2-2----------------| E|--2>---5>--|
            
Submit corrections

comments powered by Disqus
↑ Back to top | The Scene Aesthetic Tabs for So Peter, You've Become A Pirate. Lyrics for acoustic guitar and electric guitar. Tablatures and chords are parodies/interpretations of the original songs. You may use it for private study, scholarship, research or language learning purposes only