>
 >
So Peter, You've Become A Pirate

So Peter, You've Become A Pirate Guitar Tabs

The Scene Aesthetic - So Peter, You've Become A Pirate chords, tabs, tablatures, lyrics

Guitar lessons | Add/correct | Request | Top 50 tabs Artists:  A B C D E F G H I J K L M N O P Q R S T U V W X Y Z 0-9

So Peter, You've Become A Pirate Guitar Tabs – The Scene Aesthetic

CD, Sheet music, Poster

Do you like So Peter, You've Become A Pirate? Share with your friends now
TabsTabs v2
[Intro]
e|-------------0-0-0-0--|
B|---3---3-----3-3-3-3--|
G|----2---2----2-2-2-2--|
D|------0------0-0-0-0--|
A|--2----------0-0-0-0--|
E|----------0--0-0-0-2--|

[Verse]
e|--0--0--0--|
B|--3--3--3--|
G|--2--2--2--|
D|--0--0--0--| x4
A|--2--0--0--|
E|-----x--3--|

[Chorus]
e|--0--0--0--0--|
B|--3--3--3--3--|
G|--2--2--2--2--|
D|--0--0--0--0--| x3
A|--0--2--0--0--|
E|--3-----x--3--|

[Pre Verse]
e|--------------|
B|--------------|
G|--4--7--------|
D|--4--7--5--5--| x2
A|--2--5--5--5--|
E|--------3--2--|

[Verse]
e|--0--0--|     e|--0--|
B|--3--3--|     B|--3--|
G|--2--2--|     G|--2--|
D|--0--0--| x2  D|--0--|
A|--2--0--|     A|--0--|
E|--x--x--|     E|--3--|

[Chorus]
e|--0--0--0--0--|
B|--3--3--3--3--|
G|--2--2--2--2--|
D|--0--0--0--0--| x3
A|--0--2--0--0--|
E|--3-----x--3--|

[Bridge]x2
e|--------------|    e|----------------|
B|--------------|    B|----------------|
G|--444-444444--|    G|--777-7766-777--|
D|--444-444444--| x2 D|--777-7777-777--| x2
A|--222-220202--|    A|--555-5555-777--|
E|--------------|    E|----------------|

[Next part of Bridge]
e|--------|    e|--0--|
B|--------|    B|--3--|
G|--4--7--|    G|--2--|
D|--4--7--| x2 D|--0--|
A|--2--5--|    A|--0--|
E|--------|    E|--3--|

[Chorus]
e|--0--0--0--0--|
B|--3--3--3--3--|
G|--2--2--2--2--|
D|--0--0--0--0--| x3
A|--0--2--0--0--|
E|--3-----x--3--|

[Outro]
e|-------------|
B|---3---3-----|
G|----2---2----|
D|------0------|
A|--2----------|
E|----------0--|

Another great song by these guys! i can't wait for them to come out with an album.





Comments


Popular The Scene Aesthetic tabs & chords
Beauty In The Breakdown 1 Tabs
Letters Tabs
So Peter, You've Become A Pirate 1 Tabs
Someone New Tabs
The Alamo Is No Place For Dancing Tabs
To The Steadfast Tabs
Yellow Birds & Coal Mines 1 Tabs
Yes, Even Stars Break Tabs
Never Gonna Let This Go Ukulele
Weve Got The Rain On Our Side Ukulele


Song lyrics



↑ Back to top | Tablatures and chords are parodies/interpretations of the original songs. You may use it for private study, scholarship, research or language learning purposes only
© 2014 AZChords.com Contact us | Privacy policy | DMCA | Add/correct tabs | Request tabs | Top 50 tabs