» » »

The Scene Aesthetic, Red Rover Tabs (ver.1)

Artists:  A B C D E F G H I J K L M N O P Q R S T U V W X Y Z # 

Red Rover Tabs (ver.1)

The Scene Aesthetic Tabs
 Rating:
4.6/5 (10 votes)
Red Rover lessons Tabs too difficult? Try these video lessons and learn fast
                -------------------------------------------------------------------------------
-------------------------------------------------------------------------------

So this is pretty much my first tab. I'm not sure how it will turn out so give me a 
This is TSA's new song, Red Rover.

This is definitely not 100%, by far, haha. So any corrections would be very appreciated, thanks!


Tuning: Standard


(Intro)
e|---------------------------------------------------------|
B|-------0-------------0--------------2------------2---2h3-|
G|---2------2------2------2---2---2-----2------2-----2-----|
D|-----2------2--0---0------0---4---4-----4--0---0---------|
A|-4-------------------------------------------------------|
E|---------------------------------------------------------|

(*)=Let Ring
e|--------------------------------------------0*-----------|
B|-------0-------------0-------------2--------2*-----------|
G|---2-----2------2------2---2---2-----2------2*-----------|
D|-----2-----2--0---0------0---4---4-----4----0*-----------|
A|-4------------------------------------------0*-----------|
E|---------------------------------------------------------|


(Verse)   (You figure the strumming pattern out here, It's pretty easy)
e|--0-0x---0--------------------------------------------|
B|--0-0x---2--------------------------------------------|
G|--2-2x---2-(just strum this chord a while)---(8x)-----|
D|--2-2x---0--------------------------------------------|
A|--0-0x---0--------------------------------------------|
E|------------------------------------------------------|

(Pre-Chorus)
e|----------------------------------------------------------------------------0*--0*-----|
B|----------------------------------------------------------------------------0*--2*-----|
G|------2-----2-----2----2------2-----2-----2-----2------2----2----2-----2----2*--2*-----|
D|--0h2-----2-----2----2----0h2-----2-----2-----2----0h2----2----2-----2------2*--0*-----|
A|--------4-----2----0------------4-----2-----0-----------4----2-----0--------0*--0*-----|
E|---------------------------------------------------------------------------------------|


(Chorus) I'm totally guessing at this part, I'm sure it's something different, But this 
what I have for now until someone can correct me.

I'll continue to keep saying.... (switch on "saying")
e|-0--------------------0---------------------|
B|-2--------------------0---------------------|
G|-2-(strum)------------2-(strum)-------------|
D|-0--------------------2---------------------|
A|-0--------------------0---------------------|
E|-0--------------------0---------------------|


We'll continue to keep playing... (switch on "playing")
e|-0---------------------0----------------|
B|-2---------------------0----------------|
G|-2--(strum-------------2-(strum)--------|
D|-0---------------------2----------------|
A|-0---------------------0----------------|
E|-0---------------------0----------------|


But maybe just this once... We'll work it out....
e|-2---------------------------1---------------------0*--------------------------|
B|-3---------------------------3---------------------0*--------------------------|
G|-2---------------------------2---------------------2*--------------------------|
D|-0--(strum)------------------0--(strum)------------2*--------------------------|
A|-0---------------------------0---------------------0*--------------------------|
E|-0---------------------------0---------------------0*--------------------------|


Play Intro over again

(bridge) Switch between these 2 chords then switch to this...
e|-0---------0---------------------------------0---------------------|
B|-2---------0---------------------------------2---------------------|
G|-2-(strum)-2-(strum)-------------------------4---------------------|
D|-0---------2---------------------------------4--(strum)------------|
A|-0---------0---------------------------------0---------------------|
E|-------------------------------------------------------------------|

(bridge) So you repeat that little thing up there until a part where it changes... The 
is kinda like this...
e|--0-----------------------------5**-----------------------------------------|
B|--3-----------------------------6**-----------------------------------------|
G|--4--(strum)--------------------7**-----------------------------------------|
D|--4-----------------------------0**-----------------------------------------|
A|--0-------------------------------------------------------------------------|
E|----------------------------------------------------------------------------|

(Play Chorus twice)

End


(Lyrics)

Its about time to take a chance and let myself slip through
It's been a while since I've felt like this
did it happen to you

We've come a long way since I saw you sitting in the living room
you rolled your eyes at me and that is fine
because we've finally broke through

It's always the same with the games that we play
where the boys chase the girls and the girls run away, but you never went running I'm 
that you stayed for me with me

I'll continue to keep saying the things that I say
We'll continue to keep playing the games that we play
but maybe just this once we'll work it out

Your not alone confide in me with anything your heart may need
I am always here for you

We've come across alot of things throughout our lives but you will see
that I will always follow through

Don't ever worry you are never alone in this

I'll continue to keep saying the things that I say
We'll continue to keep playing the games that we play
but maybe just this once, we'll work it out

I'll continue to keep saying the things that I say
We'll continue to keep playing the games that we play
but maybe just this once we'll work it out

| /  slide up
| \  slide down
| h  hammer-on
| p  pull-off
| ~  vibrato
| +  harmonic
| x  Mute note
===============================================================================
            
Submit corrections

comments powered by Disqus
↑ Back to top | The Scene Aesthetic Tabs for Red Rover. Lyrics for acoustic guitar and electric guitar. Tablatures and chords are parodies/interpretations of the original songs. You may use it for private study, scholarship, research or language learning purposes only