» » »

The Scene Aesthetic, Love Through Postcards Tabs (ver.1)

Artists:  A B C D E F G H I J K L M N O P Q R S T U V W X Y Z # 

Love Through Postcards Tabs (ver.1)

The Scene Aesthetic Tabs
Rating:
5/5 (3 votes)
Love Through Postcards lessons Tabs too difficult? Try these video lessons and learn fast
                PLAYED IN A HALF STEP DOWN
[First Tab; Please be kind]

INTRO
eb--------------------------------------------|
Bb---------12-12-----12-12-----12-12-----12-12|
Gb--------------------------------------------|
Db---------12--------12--------12--------12---|
Ab------10--------10--------10--------10------|
Eb--------------------------------------------|

VERSE 1 and Verse 2 [You send me love....You told me once...]
eb--------------------------------------------|
Bb---------12-12-----12-12-----12-12-----12-12|
Gb--------------------------------------------|
Db---------12--------12--------12--------12---|
Ab------10--------10--------10--------10------|
Eb--------------------------------------------|

eb--------------------------------------------|
Bb---------5-5------5-5------5-5------5-5-----|
Gb--------------------------------------------|
Db---------5--------5--------5--------5-------|
Ab------3--------3--------3--------3----------|
Eb--------------------------------------------|

eb--------------------------------------------|
Bb---------7-7------7-7------7-7------7-7-----|
Gb--------------------------------------------|
Db---------7--------7--------7--------7-------|
Ab------5--------5--------5--------5----------|
Eb--------------------------------------------|

eb--------------------------------------------|
Bb------8----7----5----3-------12-12--12~-----|
Gb--------0----0----0----0-------------0~-----|
Db-----------------------------12-----12~-----|
Ab------7----5----3----2----10--------10~-----|
Eb--------------------------------------------|

VERSE 3 [I love your smile...]
eb------0----0----0----0-0-0-0--0~------------|
Bb-----12----5----7----8-7-5-3-12~------------|
Gb------0----0----0----0-0-0-0--0~------------|
Db-----12----5----7----0-0-0-0-12~------------|
Ab-----10----3----5----7-5-3-2-10~------------|
Eb--------------------------------------------|

CHORUS [I know you're tired and...]
eb------0----0----0----0-----------|
Bb------5----7----8----8-----------|(2x)
Gb------0----0----0----0-----------|
Db------5----7----0----0-----------|
Ab------3----5----7----7-----------|
Eb---------------------------------|

eb------0----0----0-0-0-0-0--0~----|
Bb------5----7----8-7-5-3-5--7~----|
Gb------0----0----0-0-0-0-0--0~----|
Db------5----7----0-0-0-0-5--7~----|
Ab------3----5----7-5-3-2-3--5~----|
Eb---------------------------------|

TRANSITION TO VERSE
eb------0----|
Bb-----12----|
Gb------0----|
Db-----12----|
Ab-----10----|
Eb-----------|

VERSE 4 [We keep adding to this...]
eb------0----0----0----0-0-0-0--0~------------|
Bb-----12----5----7----8-7-5-3-12~------------|
Gb------0----0----0----0-0-0-0--0~------------|
Db-----12----5----7----0-0-0-0-12~------------|
Ab-----10----3----5----7-5-3-2-10~------------|
Eb--------------------------------------------|

VERSE 5 [Some people just won't...]
eb------0----0----0----0-0-0-0--0~------------|
Bb-----12----5----7----8-7-5-3-12~------------|
Gb------0----0----0----0-0-0-0--0~------------|
Db-----12----5----7----0-0-0-0-12~------------|
Ab-----10----3----5----7-5-3-2-10~------------|
Eb--------------------------------------------|

CHORUS [I know you're tired and...]
eb------0----0----0----0-----------|
Bb------5----7----8----8-----------|(2x)
Gb------0----0----0----0-----------|
Db------5----7----0----0-----------|
Ab------3----5----7----7-----------|
Eb---------------------------------|

eb------0----0----0-0-0-0-0--0~----|
Bb------5----7----8-7-5-3-5--7~----|
Gb------0----0----0-0-0-0-0--0~----|
Db------5----7----0-0-0-0-5--7~----|
Ab------3----5----7-5-3-2-3--5~----|
Eb---------------------------------|

INTERLUDE [If you're looking for...]
eb------0----0----0----0-----------|
Bb-----12----5----3----7-----------|(6x)[Start on third time.]
Gb------0----0----0----0-----------|
Db-----12----5----0----7-----------|
Ab-----10----3----2----5-----------|
Eb---------------------------------|

INTERLUDE (Continued.) [There no distance...]
eb------0----0----0-0-0-0--------------------5--|
Bb------8----7----8-7-5-3---7-7----7-7----7-8---|
Gb------0----0----0-0-0-0-----------------------|
Db------0----0----0-0-0-0---7------7------7-----|
Ab------7----5----7-5-3-2-5------5------5-------|
Eb----------------------------------------------|

CHORUS [I know you're tired and...]
eb------0----0----0----0-----------|
Bb------5----7----8----8-----------|(2x)
Gb------0----0----0----0-----------|
Db------5----7----0----0-----------|
Ab------3----5----7----7-----------|
Eb---------------------------------|

eb------0----0----0-0-0-0-0--0~----|
Bb------5----7----8-7-5-3-5--7~----|
Gb------0----0----0-0-0-0-0--0~----|
Db------5----7----0-0-0-0-5--7~----|
Ab------3----5----7-5-3-2-3--5~----|
Eb---------------------------------|

OUTRO
eb------0-----|
Bb-----12-----|
Gb------0-----|
Db-----12-----|
Ab-----10-----|
Eb------------|
            
Submit corrections

comments powered by Disqus
↑ Back to top | The Scene Aesthetic Tabs for Love Through Postcards. Lyrics for acoustic guitar and electric guitar. Tablatures and chords are parodies/interpretations of the original songs. You may use it for private study, scholarship, research or language learning purposes only