» » »

The Scene Aesthetic, Katy Give Me A Shot Tabs (ver.1)

Artists:  A B C D E F G H I J K L M N O P Q R S T U V W X Y Z # 

Katy Give Me A Shot Tabs (ver.1)

The Scene Aesthetic Tabs
 Rating:
4/5 (4 votes)
Katy Give Me A Shot lessons Tabs too difficult? Try these video lessons and learn fast
1
                ----------------------------------------------------------------------------
                   Katy(Give me a shot) - The Scene Aeshetic
----------------------------------------------------------------------------
Im pretty sure this is how you play it
if you dont like it find your own way of playing it
or if I made any mistakes plaese tell me
I learned this all by ear
and thought it would be nice to spend
a whole day making this tab for you
great people of the world :D


Tuning:EADGBE
part 1
e|----1----1----1------1----1----1-------1----1----1------1----1----1-------|
B|-----3----3----3------3----3----3-------3----3----3------3----3----3------|
G|---3--3-3--3-3--3---3--3-3--3-3--3----3--3-3--3-3--3---3--3-3--3-3--3-----|
D|--------------------------------------------------------------------------|
A|------------------0-----------------1-------------------------------------|
E|-3---------------------------------------------------1--------------------|

part 2
e|----1------1------1------1---x3-------------------------------------------|
B|-----3------3------3------3-----------------------------------------------|
G|---3--3---3--3---3--3---3--3----------------------------------------------|
D|--------------------------------------------------------------------------|
A|--------0------1----------------------------------------------------------|
E|-3--------------------1---------------------------------------------------|

part 3
e|----1-------1----1--------------------------------------------------------|
B|-----3----3--3---3--------------------------------------------------------|
G|---3--3--3-3--3--3--------------------------------------------------------|
D|--------------------------------------------------------------------------|
A|--------------------------------------------------------------------------|
E|-3------------------------------------------------------------------------|

part 4                                     play this on the 3x
e|----1-------1--------1-5-----1--x3-1--1-1--5------------------------------|
B|---3-3-----3-3------3-3-3---3-3-----3--3-3--------------------------------|
G|------3-------3----------3-----3-----3--3-3-------------------------------|
D|--------------------------------------------------------------------------|
A|---------0--------1-------------------------------------------------------|
E|-3-------------------------1----------------------------------------------|

order of song
part 1
part 2
part 3
part 4
part 1x2
part 2
part 3
part 4x2
part 1
part 4
Part 1x2
            
Submit corrections

comments powered by Disqus
↑ Back to top | The Scene Aesthetic Tabs for Katy Give Me A Shot. Lyrics for acoustic guitar and electric guitar. 1 Tablatures and chords are parodies/interpretations of the original songs. You may use it for private study, scholarship, research or language learning purposes only