» » »

The Scene Aesthetic, Humans Tabs (ver.1)

Artists:  A B C D E F G H I J K L M N O P Q R S T U V W X Y Z # 

Humans Tabs (ver.1)

The Scene Aesthetic Tabs
 Rating:
4/5 (6 votes)
Humans lessons Tabs too difficult? Try these video lessons and learn fast
1
                (Intro)
Hi guys! Well, I haven't seen any good Humans tabs anywhere...
So here's one that I made up. It sounds pretty good and accurate even though it
does sound a little funny, but whatever.
Here it is:

                     Intro (2x) and Verse 1 (4x)

[---------------------------------------------------------------------|
[--------0-----------0--------0h1----1-----------1--------------------|
[------------0------------0--------------0------------0---------------|
[---------------------------------------------------------------------|
[---------------------------------------------------------------------|
[---3--3---3---3--3----3------3----3---3---3--3----3------------------|


 ---------------------------------------------------------------------]
 --------1-----------1-------------0---------0h1-----1p0---0----------]
 ------------2------------2--------------0----------------------------]
 ---------------------------------------------------------------------] x 6
 ---------------------------------------------------------------------]
 --2--2----2---2--2----2-----3--3-----3------3----3------3------------]


                              Chorus

 [---------------------------------------------------------------------|
 [--------1------------1------------1----------------1-----------------|
 [------------2------------0--------------0----------------0-----------|
 [---------------------------------------------------------------------|
 [--0--0----0----2--2----2----3--3-----3------3--3------3-----3--------|
 [---------------------------------------------------------------------|


 ----------------------------------------------------------------------|
 --------0--------------1-------------0------------------0-------------|
 -------------0--------------2--------------0--------------------0-----|
 ----------------------------------------------------------------------|
 ----------------------------------------------------------------------|
 --0--0----0------2--2----2-----3--3-----3------3---3-------3----------|


 -----------------------------------------------2----------------------]
 ---------1------------1------------1-----------3----------------------]
 -------------2------------0--------------0-----2----------------------]
 -----------------------------------------------0----------------------]
 ---0--0----0----2--2----2----3--3-----3--------x----------------------]
 -----------------------------------------------x----------------------]


[---------------------------------------------------------------------|
[--------0-----------0--------0h1----1-----------1--------------------|
[------------0------------0--------------0------------0---------------|
[---------------------------------------------------------------------|
[---------------------------------------------------------------------|
[---3--3---3---3--3----3------3----3---3---3--3----3------------------|


 -----------------------------------]
 --------1-----------1----------0---]
 ------------2------------2-----0---]
 -----------------------------------]
 -----------------------------------]
 --2--2----2---2--2----2--------3---]


Lyrics for this part:

Deep, deep inside of your heart.
There is a weight that still needs to be lifted.
You cover it up, but the pain never stops
Sometimes i wish that you would just listen.
Deep, deep inside of yourself
There is a soul starving for some affection
Been waiting for years but the time passes by
All you ever wanted was to fit in.

So I wrote you this song
I hope that you like it
Cause you light up my life
And I know you cant fight this
You're the most beautiful girl in the world
And I wanted you to know
            
Submit corrections

comments powered by Disqus
↑ Back to top | The Scene Aesthetic Tabs for Humans. Lyrics for acoustic guitar and electric guitar. 1 Tablatures and chords are parodies/interpretations of the original songs. You may use it for private study, scholarship, research or language learning purposes only