» » »

Dear Time Traveler Tabs (ver.1)

Artists:  A B C D E F G H I J K L M N O P Q R S T U V W X Y Z # 

Dear Time Traveler Tabs (ver.1)

The Scene Aesthetic
Rating:
0/5 (0 votes)

Hard to play? Try these video lessons and learn fast.
                So, these are the chords that andrew plays. i havent figured out the order or
completely when he plays the chords.
great song. i just know the basic chords and im really lazy.
so your welcome :D

intro

|---------------------------------------------------------------------------|
|--------------------7--------------------7---------------------------------|
|---------8----8-9----9---------8----8----9--------9----9-11--13-11-9-------|
|------9----9------------9----9----9---------9---9----9---------------------|
|---0-----------------------0-----------------------------------------------|
|-------------------------------------------------0-------------------------|

|---------------------------------------------------------|
|---------------------------------------------9-----------|
|---------9----9-11-13-11---------------------9-----------|
|------9----9---------------------------------9-----------|
|----------------------------------[x2]-------------------|
|---0-----------------------------------------------------|

now it gets Really tricky. to the point where i only kno the chords he uses.
lets call this the middle/end. just fiddle around.
a few chords go hand in hand like so:

-0-0-
-0-0-
-8h9-
-9-9-
-0-0-
-0-0-

-0-0-
-0-9-
-9-x
-9-9
-7-7-
-0-0-

-0-0-
-7h9-
-9-8-
-9-9-
-0-0-
-0-0-

thats all of the chords. this song is just really messy.
he also uses:

-----
-----
-9---
-9---
-x---
-9---

somewhere... its a big mess.
andrew is just amazing. haha
            
Hard to play? Try these video lessons and learn fast. | Correct




comments powered by Disqus
↑ Back to top | Tablatures and chords are parodies/interpretations of the original songs. You may use it for private study, scholarship, research or language learning purposes only