» » »

Beauty In The Breakdown Tabs (ver.3)

Artists:  A B C D E F G H I J K L M N O P Q R S T U V W X Y Z # 

Beauty In The Breakdown Tabs (ver.3)

The Scene Aesthetic
Rating:
5/5 (8 votes)

Hard to play? Try these video lessons and learn fast.
                ============================================
The Scene Aesthetic -Beauty in the Breakdown
============================================

--------------------------------------------------------------------
NOTE: This tab is for the 2nd guitar riffs. No one seems to have 
them worked out yet and plus the parts for guitar one are pretty
much perfect. So heres my take on it. Enjoy
--------------------------------------------------------------------

Riff 1
  (0.04 - 0.08) & (1.06 - 1.10)
e|-----------------10----------3----|
B|---10p8-7-7h8\7--12----------3----|
G|-----------------12----------0----|
D|----------------------------------|
A|----------------------------------|
E|----------------------------------|

Riff 2
  (0.10 - 0.12) & (1.12 - 1.14)
e|---2h3-3p2-2p0--------------------|
B|--------------0-1/3---------------|
G|----------------------------------|
D|----------------------------------|
A|----------------------------------|
E|----------------------------------|

Riff 3
  (0.36 - 0.43) & (1.39 - 1.46)
e|--2/3--3/5--7---2/3--3/5--7---7---|
B|------------8-------------8---8---|
G|----------------------------------|
D|----------------------------------|
A|----------------------------------|
E|----------------------------------|

Riff 4
  (2.16 - 2.38)
e|--5/7-7-7-7-7-7-7-7-7-7-7-7-7-7-10p7-7-8p7-7-7-10p7-7-8p7-7-7-|
B|--7/8-8-8-8-8-8-8-8-8-8-8-8-8-8-8----8-8---8-8-8----8-8---8-8-|
G|--------------------------------------------------------------|
D|--------------------------------------------------------------|
A|--------------------------------------------------------------|
E|--------------------------------------------------------------|

e|--5/7-7-7-7-7-7-7-7-7-7-7-7-7-7-8-8-8-8-8-8-8-8-8-8-8-8-8-8-8-|
B|--7/8-8-8-8-8-8-8-8-8-8-8-8-8-8-8-8-8-8-8-8-8-8-8-8-8-8-8-8-8-|
G|--------------------------------------------------------------|
D|--------------------------------------------------------------|
A|--------------------------------------------------------------|
E|--------------------------------------------------------------|

e|--5/7-7-7-7-7-7-7-7-7-7-7-7-7-7-10p7-7-8p7-7-7-10p7-7-8p7-7-7-|
B|--7/8-8-8-8-8-8-8-8-8-8-8-8-8-8-8----8-8---8-8-8----8-8---8-8-|
G|--------------------------------------------------------------|
D|--------------------------------------------------------------|
A|--------------------------------------------------------------|
E|--------------------------------------------------------------|

e|--5/7-7-7-7-7-7-7-7-7-7-7-7-7-7-8--|
B|--7/8-8-8-8-8-8-8-8-8-8-8-8-8-8-8--|
G|-----------------------------------|
D|-----------------------------------|
A|-----------------------------------|
E|-----------------------------------|

================
Comments welcome
================
            
Hard to play? Try these video lessons and learn fast. | Correct




comments powered by Disqus
↑ Back to top | Tablatures and chords are parodies/interpretations of the original songs. You may use it for private study, scholarship, research or language learning purposes only