» » »

The Scene Aesthetic, Beauty In The Breakdown Tabs (ver.2)

Artists:  A B C D E F G H I J K L M N O P Q R S T U V W X Y Z # 

Beauty In The Breakdown Tabs (ver.2)

The Scene Aesthetic Tabs
Rating:
2.4/5 (53 votes)
Beauty In The Breakdown lessons Tabs too difficult? Try these video lessons and learn fast
                This song is so amazing. Probably one of their best. I'm am pretty sure this is correct 
it is very easy. If you have any questions IM me on w00t its Megannn on AIM. Please rate this 
=)
ENJOY!

standard tuning.
(figure out strumming on your own, it shouldnt be hard.)

h = hammer-on
p = pull-off


Intro


e|------------------------------3---------------------3---------3---------|
B|------------------------------3---------------------3---------3---------|
G|-------0----------------------0-(x6)---------0------0-(x2)----0-(x4)----|
D|--0h2----2---0h2p0------------2---------0h2----0----2---------0---------|
A|--------------------3p2--3----3---------------------2---------2---------|
E|------------------------------x---------------------0---------3---------|


e|-------------------3---------------------3---------3---------|
B|-------------------3---------------------3---------3---------|
G|-------------------0-(x6)---------0------0-(x2)----0-(x4)----|
D|--0h2p0------------2---------0h2----0----2---------0---------|
A|---------3p2--3----3---------------------2---------2---------|
E|-------------------x---------------------0---------3---------|


Verse

(Come on and take a step towards me...)
(Come on love run with me...)

e|------3---------3----------3---------|   ( On your second time playing the
B|------3---------3----------3---------|     << verse, don't play the first
G|------0-(x10)----0-(x2)----0-(x8)----|       << note before Cadd9.)
D|------2---------2----------0---------|
A|--3---3---------2----------2---------|
E|------x---------0----------3---------|


(I'm not quite sure about this part, but it sounds right.)

e|--0---------3---------3---------|
B|--1---------3---------3---------|       play this part twice.
G|--2-(x2)----0-(x2)----0-(x8)----|
D|--2---------0---------2---------|
A|--0---------2---------3---------|
E|--x---------x---------x---------|


Chorus

(You say that we're all tied up...)

e|--3----------3----------|
B|--3----------3----------|
G|--0-(x12)----0-(x12)----|  play twice
D|--0----------2----------|
A|--2----------3----------|
E|--3----------x----------|


e|--3---------3----|
B|--3---------3----|
G|--0-(x10)---0----|
D|--2---------2----|
A|--2---------3----|
E|--0---------x----|


back to intro,
then play the second verse
and the chorus.


(You can stay if you want to...)

e|--3----------3----------|
B|--3----------3----------|
G|--0-(x12)----0-(x12)----|   play 3 times
D|--0----------2----------|
A|--2----------3----------|
E|--3----------x----------|

e|--3----------3----|
B|--3----------3----|
G|--0-(x12)----0----|
D|--0----------2----|
A|--2----------3----|
E|--3----------x----|

Then play the second part of the verse twice.
Then play the chorus.

End on

e|--3----|
B|--3----|
G|--0----|
D|--0----|
A|--2----|
E|--3----|

thats it!!
            

comments powered by Disqus
↑ Back to top | The Scene Aesthetic Tabs for Beauty In The Breakdown. Lyrics for acoustic guitar and electric guitar. Tablatures and chords are parodies/interpretations of the original songs. You may use it for private study, scholarship, research or language learning purposes only