>
 >
A Formal Introduction

A Formal Introduction Guitar Tabs

The Scene Aesthetic - A Formal Introduction chords, tabs, tablatures, lyrics

Guitar lessons | Add/correct | Request | Top 50 tabs Artists:  A B C D E F G H I J K L M N O P Q R S T U V W X Y Z 0-9

A Formal Introduction Guitar Tabs – The Scene Aesthetic

CD, Sheet music, Poster

Do you like A Formal Introduction? Share with your friends now
Tabs
1st
----------0~----------|
----------0~----------|
----------0~----------|
----------2~----------|
----------2~----------|
----------0~----------|
2nd
-------------------------------------------------------------|
------------------12*---------12*---------12*---------12*----|
--------------12*---------12*---------12*---------12*--------|
----------------12*---------12*---------12*---------12*------|
-------------------------------------------------------------|
----------12*---------12*---------12*---------12*------------|

1st
----------0~----------|
----------0~----------|
----------0~----------|
----------0~----------|
----------0~----------|
----------0~----------|
2nd
-------------------------------------------------------------|
------------------12*---------12*---------12*---------12*----|
--------------12*---------12*---------12*---------12*--------|
----------------12*---------12*---------12*---------12*------|
-------------------------------------------------------------|
----------10*---------10*---------10*---------10*------------|

1st
----------0~----------------------0~-------------------------|
----------0~----------------------0~-------------------------|
----------0~----------------------0~-------------------------|
----------2~----------2~----------2~----------2~-------------|
--0h2-0---2~----------------------2~-------------------------|
--------3-0~----------------------0~-------------------------|
2nd
-------------------------------------------------------------|
------------------12*---------12*---------12*---------12*----|
--------------12*---------12*---------12*---------12*--------|
----------------12*---------12*---------12*---------12*------|
-------------------------------------------------------------|
----------12*---------12*---------12*---------12*------------|

1st
----------0~----------------------------0*-------|
----------0~---------------------------0*--------|
----------0~--------------------------0*---------|
----------0~-------------------------0*----------|
----------0~------------------------0*-----------|
----------0~-----------------------0*------------|
2nd
----------------------------------------12*------|
------------------12*---------12*------12*-------|
--------------12*---------12*---------12*--------|
----------------12*---------12*------12*---------|
------------------------------------12*----------|
----------10*---------10*----------12*-----------|

1st
----------0--------------0----------------------5/7\5-3/5\3-----|
----------0--------------0--------------------------------------|
----------0--------------0--------------------------------------|
----------2--------------2--------------------------------------|
--0h2-0---2--------------2--------------------------------------|
--------3-0--------------0--------------------------------------|
2nd
----------------------------------------------------------------|
----------------------------------------------------------------|
--2/4-2-0---------------------------------------2/4\2-0h2p0-----|
----------2-----------------------------------------------------|
----------------------------------------------------------------|
----------------------------------------------------------------|

1st
  we are the ones you depend on when
--0---------------------0-----------------|
--0---------------------0-----------------|
--0---------------------0-----------------|
--2---------------------2-----------------|
--2---------------------2-----------------|
--0---------------------0-----------------|
                                               >(x2)
  you’re in rough times...
------------------0---------------------0----------------|
------------------0---------------------0----------------|
------------------0---------------------0----------------|
------------------0---------------------0----------------|
------------------0---------------------0----------------|
------------------0---------------------0----------------|
2nd
depend on.......times.......................read all the lines...
-------------------------------------------------------------------|
-------------------------------------------------------------------|
--2/4---2/4-2-0----0----0----0----0----0----0-2/4-2-0-2(2/4--4/5)--|
----------------0h2--0h2--0h2--0h2--0h2--0h2-----------------------|
-------------------------------------------------------------------|
-------------------------------------------------------------------|

      how much it all means to me...
--/12-1212-121212--10---(17-15\12)-----|
----------------------12-10-8\5--------|





Comments


Popular The Scene Aesthetic tabs & chords
Alamo Is No Place For Dancing Chords
Come What May 2 Chords
Heavy Lies The Crown Tabs
Humans Intro Tabs
The Alamo Is No Place For Dancing Tabs
The Alamo Is No Place For Dancing 2 Tabs
The Man I Am 1 Tabs
Yes, Even Stars Break Tabs
Beauty In The Breakdown Ukulele
Never Gonna Let This Go Ukulele


Song lyrics



↑ Back to top | Tablatures and chords are parodies/interpretations of the original songs. You may use it for private study, scholarship, research or language learning purposes only
© 2014 AZChords.com Contact us | Privacy policy | DMCA | Add/correct tabs | Request tabs | Top 50 tabs