» » »

The Rapture, Sister Saviour Tabs (ver.1)

Artists:  A B C D E F G H I J K L M N O P Q R S T U V W X Y Z # 

Sister Saviour Tabs (ver.1)

The Rapture Tabs
 Rating:
4/5 (4 votes)
Sister Saviour lessons Tabs too difficult? Try these video lessons and learn fast
1
                -------------------------------------------------------------------------------
-------------------------------------------------------------------------------


Tuning: Standard


Intro

e|--13---7----6---10---|
B|--10---9----8---10---|
G|--10---10---7---10---| x2 also, let em' ring
D|---------------------|
A|---------------------|
E|---------------------|



E|-10-10---10--10--10--|
B|-10-10---12--10--10--|
G|-10-10---12--10--10--|
D|---------------------| 
A|---------------------|
E|---------------------|
                                    
E|-10----10----|
B|-10----12----|
G|-10----12----|
D|-------------| 
A|-------------|
E|-------------|

 This repeats through the whole song until minute 01:43

E|-10-10-10-10-|
B|-10-10-10-10-|
G|-10-10-10-10-| (Repeat as necessary)
D|-------------| 
A|-------------|
E|-------------|

 2:00

E|--------------------|
B|-10------10---------|
G|-------------10-----| Mess around with that for a while
D|-----12---------12--| 
A|--------------------|
E|--------------------|

And that's it, just rinse and repeat!

Bass (synth) starts at 00:17

G|--------------------------------|
D|--------------------------------|
A|--5-5-5---5-5-5---5-5-5---5-5-5-|
E|--------------------------------|

G|-----7----7--------7-----7--|
D|----------------------------| (Repeat as necessary)
A|--5-----5---5---5-----5-----| 
E|----------------------------|

G|----10---10----12----12--|
D|-------------------------| 
A|--7----7----10----10-----|
E|-------------------------|
            
Submit corrections

comments powered by Disqus
↑ Back to top | The Rapture Tabs for Sister Saviour. Lyrics for acoustic guitar and electric guitar. 1 Tablatures and chords are parodies/interpretations of the original songs. You may use it for private study, scholarship, research or language learning purposes only