» » »

The Rakes, Work, Work Work (Pub, Club, Sleep) Bass tabs (ver.1)

Artists:  A B C D E F G H I J K L M N O P Q R S T U V W X Y Z # 

Work, Work Work (Pub, Club, Sleep) Bass tabs (ver.1)

The Rakes Tabs
 Rating:
4/5 (4 votes)
Work, Work Work (Pub, Club, Sleep) lessons Tabs too difficult? Try these video lessons and learn fast
                THE  RAKES - Work, Work, Work  (Pub, Club, Sleep)



intro

g--------------------------------------------------------------------------|
d--------------------------------------------------------------------------|
a--------------------------------------------------------------------------|
e----7777777777777777777---------------------------------------------------|

0:12 
(x2)
g------------------------------------------------------------------------------------------|
d------------------------------------------------------------------------------------------|
a------------------------------------------------------------------------------------------|
e-5-5-5-5--7-7--7-7-4-4-7-7-7-7--(x2)----14-14-14-14--12-12--12-12-9-9-12-12-12-12---(x2)--|


0:40
verse (x2)
g--------------------------------------------------------------------------|
d--------------------------------------------------------------------------|
a--------------------------------------------------------------------------|
e--7...x16---------0h12-0h12...x16-----------------------------------------|


1:13 
chorus (x3)
g----------------------------------------------------------------|
d----------------------------------------------------------------|
a----------------------------------------------------------------|
e-7--7-7--5--5-5--12-12.........................-----------------|


1:32
bridge
g----------------------------------------------------------------|
d----------------------------------------------------------------|
a----------------4-2-4-2-4-2------------------7-7-7-7-7-7-7-7----|
e--4-2-4-2-4-2-----------------4-2-4-2-4-2-----------------------|

or

g--------------------------------------------------------------------------|
d--------------------11-9-11-9-11-9----------------------------------------|
a-11-9-11-9-11-9-----------------------11-9-11-9-11-9------7-7-7-7-7-7-7-7-|
e--------------------------------------------------------------------------|


1:39
verse (x3)
g------------------------------------------------------------------------|
d------------------------------------------------------------------------|
a------------------------------------------------------------------------|
e--7...x16---------12..x16-----------------------------------------------|

Then:

- chorus (x3)
- bridge


2:53
spoken part (x 11)
g-----------------------------------------------------|
d-----------------------------------------------------|
a------7-7-7------------------------------------------|
e--0-----------(0)------------------------------------|

- bridge
- chorus (x3)
- bridge 

end
g--------------------------------------------------------------|
d--------------------------------------------------------------|
a--------------------------------------------------------------|
e--7-----------------------------------------------------------|
            
Submit corrections

comments powered by Disqus
↑ Back to top | The Rakes Bass for Work, Work Work (Pub, Club, Sleep). Lyrics for acoustic guitar and electric guitar. Tablatures and chords are parodies/interpretations of the original songs. You may use it for private study, scholarship, research or language learning purposes only