» » »

Work, Work Work (Pub, Club, Sleep) Tabs (ver.1)

Artists:  A B C D E F G H I J K L M N O P Q R S T U V W X Y Z # 

Work, Work Work (Pub, Club, Sleep) Tabs (ver.1)

The Rakes
Rating:
0/5 (0 votes)

Hard to play? Try these video lessons and learn fast.
                Guitar Intro- A A A A B B, A A A A B B, F# F# F# F# E E, F# F# F# F# E E (X2)

when singing starts its B on bass and for the ->

"prick coughs again....."
e---------------------------------------------------------------------------|
b---------------------------------------------------------------------------|
g-9-9-9-9-9-9-9-9-9-9-9-9-11-11-11---9-9-9-9-9-9-9-9-9-9-9-9-11-11-11- -----|
d---------------------------------------------------------------------------|
a---------------------------------------------------------------------------|
E---------------------------------------------------------------------------|

again back to bass on B

then the "ive got to clear my head...."
e---------------------------------------------------------------|
b---------------------------------------------------------------|
g---------------------------------------------------------------|
d------------------------------------------------------7-7-7----|
a-7-------------9------------------7------------9---------------|
E----7-----10------7-7-7--7-7---------7----10-------------------|

chorus

  Bm             A              E            E(variation)
e-7--------------5--------------12-----------12------------|
b-7--------------5--------------12-----------12------------|
g-7--x5----------6---x5---------13---x7------16(15)x4------|
d-9--------------7--------------14-----------14------------|
a-9--------------7--------------14-----------12------------|
E-7--------------5--------------12-----------12------------|

play the chorus x4 then into this bridge

e-------------------------------------------------------------------------|
b-------------------------------------------------------------------------|
g---------------------------------------------------------------999999b---|
d-----------------------11-9-11-9-11-9------------------------------------|
a--11-9-11-9-11-9-----------------------11-9-11-9-11-9--------------------|
E-------------------------------------------------------------------------|

then back to the bass B

"woooo!" (just play with these notes)
e------------------------------|
b------------------------------|
g-11-9--11-9-11-11-11-9-9------|
d------------------------------|
a------------------------------|
E------------------------------|

the above is played until the chorus that is just after the "my clothes still smell of 
night..." bit

chorus again

Bm               A              E            E(variation)
e-7--------------5--------------12-----------12---------------|
b-7--------------5--------------12-----------12---------------|
g-7--x5----------6---x5---------13---x7------16(15)- x4-------|
d-9--------------7--------------14-----------14---------------|
a-9--------------7--------------14-----------12---------------|
E-7--------------5--------------12-----------12---------------|

play the chorus x4 then into this bridge

e--------------------------------------------------------------------------|
b--------------------------------------------------------------------------|
g---------------------------------------------------------------999999b----|
d-----------------------11-9-11-9-11-9-------------------------------------|
a--11-9-11-9-11-9-----------------------11-9-11-9-11-9---------------------|
E--------------------------------------------------------------------------|
finish on E

oriental riff over the monologue
e-14-14-14-14--12-12------9-9-9-9--7-7---|
b-14-14-14-14--12-12------9-9-9-9--7-7---|
g----------------------------------------|
d----------------------------------------|
a----------------------------------------|
E----------------------------------------|

then back into the bridge

e--------------------------------------------------------------------------|
b--------------------------------------------------------------------------|
g---------------------------------------------------------------999999b----|
d-----------------------11-9-11-9-11-9-------------------------------------|
a--11-9-11-9-11-9-----------------------11-9-11-9-11-9---------------------|
E--------------------------------------------------------------------------|

then chorus  again

Bm A E E(variation)
e-7--------------5--------------12-----------12---------------|
b-7--------------5--------------12-----------12---------------|
g-7--x5----------6---x5---------13---x7------16(15)-X4--------|
d-9--------------7--------------14-----------14---------------|
a-9--------------7--------------14-----------12---------------|
E-7--------------5--------------12-----------12---------------|

play the chorus x4 then into this bridge

e--------------------------------------------------------------------------|
b--------------------------------------------------------------------------|
g---------------------------------------------------------------999999b----|
d-----------------------11-9-11-9-11-9-------------------------------------|
a--11-9-11-9-11-9-----------------------11-9-11-9-11-9---------------------|
E--------------------------------------------------------------------------|

end on E

e-0
b-0
g-1
d-2
a-2
E-0


NOTES---- for that
e variation just take you finger off the (a-14) and
add onto the (g-16) then (g-15--|
            
Hard to play? Try these video lessons and learn fast. | Correct




comments powered by Disqus
↑ Back to top | Tablatures and chords are parodies/interpretations of the original songs. You may use it for private study, scholarship, research or language learning purposes only