» » »

The Rakes, We Danced Together Tabs (ver.1)

Artists:  A B C D E F G H I J K L M N O P Q R S T U V W X Y Z # 

We Danced Together Tabs (ver.1)

The Rakes Tabs
Rating:
5/5 (6 votes)
Hard to play? Try these video lessons and learn fast.
                Great Song. Its the third track from Ten New Messages and is the first single form the 
It is played on a Fender Telecaster. I copied and pasted the solo from the solo tab that 
wrote. Here it is, hope its ok:

Standard Tuning - EADGBE

Introduction - 0:00 - 0:10

Bass part for guitar:

E||--------------------------------------------|
B||--------------------------------------------|
G||--------------------------------------------|
D||--------------------------------------------|
A||--------------------------------------------|
E||--9-9-9-9--5-5-5-5--2-2-2-2--5-5-5-7-7-7-7--|

Verse - 0:10 - 0:32

1st Part - 0:10 - 0:21

We danced together on the roof at the party
Five stories removed from the troubles on the streets


E||--------------------------------------------|
B||--------------------------------------------|
G||--------------------------------------------|
D||--------------------------------------------|
A||--------------------------------------------|
E||--9-9-9-9--5-5-5-5--2-2-2-2--5-5-5-7-7-7-7--|

2nd Part - 0:21 - 0:32

The sun arose revealing the goosebumps on your arms
A sign that we should move together somewhere warm

E||--------------------------------------------|
B||--------------------------------------------|
G||--------------------------------------------|
D||--9-\-1-/-2---9\1/2---9-\-1-/-2-/-4-/-6-/-9-|
A||--------------------------------------------|
E||--------------------------------------------|

Chorus - 0:32 - 0:54

We danced together, we danced together x4

     E               F#
E||------------------------------|
B||--9-9-9--9-9-9-9--11----------|
G||--9-9-9--9-9-9-9--11----------|
D||--9-9-9--9-9-9-9--11----------|
A||------------------------------|
E||------------------------------|
     E               F# E F# E
E||------------------------------|
B||--9-9-9--9-9-9-9--11-9-11-9---|
G||--9-9-9--9-9-9-9--11-9-11-9---|
D||--9-9-9--9-9-9-9--11-9-11-9---|
A||------------------------------|
E||------------------------------| x 4

Verse 2 - 0:54 - 1:14

1st Part - 0:54 - 1:03

We moved to the street where they tried to hold curfew
And ran among the debris as the bullets flew

E||--x-x-x-x-x-x-x-x-x-x-|
B||--x-x-x-x-x-x-x-x-x-x-|
G||--x-x-x-x-x-x-x-x-x-x-|
D||--x-x-x-x-x-x-x-x-x-x-|
A||--x-x-x-x-x-x-x-x-x-x-|
E||--x-x-x-x-x-x-x-x-x-x-|

2nd part - 1:03 - 1:14

Helicopters circled overhead to get a better view
We found a doorway fell in and i held you yeah

E||--------------------------------------------|
B||--------------------------------------------|
G||--------------------------------------------|
D||--9-\-1-/-2---9\1/2---9-\-1-/-2-/-4-/-6-/-9-|
A||--------------------------------------------|
E||--------------------------------------------|

Chorus - 1:14 - 1:36

We danced together, we danced together x4
     E               F#
E||------------------------------|
B||--9-9-9--9-9-9-9--11----------|
G||--9-9-9--9-9-9-9--11----------|
D||--9-9-9--9-9-9-9--11----------|
A||------------------------------|
E||------------------------------|
     E               F# E F# E
E||------------------------------|
B||--9-9-9--9-9-9-9--11-9-11-9---|
G||--9-9-9--9-9-9-9--11-9-11-9---|
D||--9-9-9--9-9-9-9--11-9-11-9---|
A||------------------------------|
E||------------------------------| x 4

Bridge - 1:36 - 1:57

Keep playing the above riff or play these chords

E                                               Bm   C#m
We didn't give a sh*t about what they would say
C#m
And stayed up until the light turned our eyes grey
E                                         Bm C#m
We came to money like it was our last day
C#m
Two fingers up at those who wont miss us when we pass away

Solo - 1:57 - 2:18

e|--------------------------------|
B|--------------------------------|
G|--------------------------------|
D|--11-11-11-11-11--9-------------|
A|---------------------11--9------|
E|----—---------------------------|

e|---------------------------------|
B|---------------------------------|
G|---------------------------------|
D|--11-9---------------------------|
A|-------11------------------7-9---|
E|----—-----12-12-----9--12--------|

e|---------------------------------|
B|---------------------------------|
G|------------------9-9-9----------|
D|--11-9------11-9-----------------|
A|-------11-9----------------------|
E|----—----------------------------|

e|---------------------------------|
B|---------------------------------|
G|---------------------------------|
D|---------------------------------|
A|-------9-------9------9------9---|
E|--9h12----9h12---9h12---9h12-----|

e|---------------------------------|
B|---------------------------------|
G|---------------------------------|
D|---------------------------------|
A|-------9----11-------------------|
E|--9h12--—9-----9-9\7-9 9---------|

e|---------------------------------|
B|--------------------------9-----9|
G|--9--9--9-----9--9--9--9--9-----9|
D|--11-11-11p9--11-11-11-9----11---|
A|---------------------------------|
E|----—----------------------------|

Chorus - 2:18 - 3:01

1st part = Bass bit - 2:18 - 2:29

E||--------------------------------------------|
B||--------------------------------------------|
G||--------------------------------------------|
D||--------------------------------------------|
A||--------------------------------------------|
E||--9-9-9-9--5-5-5-5--2-2-2-2--5-5-5-7-7-7-7--|

then 2nd part - 2:29 - 2:40

We danced together, we danced together on the roof at the party

E||--x-x-x-x-x-x-x-x-x-x-|
B||--x-x-x-x-x-x-x-x-x-x-|
G||--x-x-x-x-x-x-x-x-x-x-|
D||--x-x-x-x-x-x-x-x-x-x-|
A||--x-x-x-x-x-x-x-x-x-x-|
E||--x-x-x-x-x-x-x-x-x-x-|

3rd part - 2:40 - 3:01

We danced together, we danced together x4
     E               F#
E||------------------------------|
B||--9-9-9--9-9-9-9--11----------|
G||--9-9-9--9-9-9-9--11----------|
D||--9-9-9--9-9-9-9--11----------|
A||------------------------------|
E||------------------------------|
     E               F# E F# E
E||------------------------------|
B||--9-9-9--9-9-9-9--11-9-11-9---|
G||--9-9-9--9-9-9-9--11-9-11-9---|
D||--9-9-9--9-9-9-9--11-9-11-9---|
A||------------------------------|
E||------------------------------| x 4

Bridge - 3:01 - 3:22

Keep playing the above riff or play

E                                                Bm   C#m
We didn't give a sh*t about what they would say
C#m
And stayed up until the light turned our world grey
E                                         Bm C#m
We came to money like it was our last day
C#m
Two fingers up at those who wont miss us when we pass away

Outro - 3:22 - 3:53 (End)

     E               F#
E||------------------------------|
B||--9-9-9--9-9-9-9--11----------|
G||--9-9-9--9-9-9-9--11----------|
D||--9-9-9--9-9-9-9--11----------|
A||------------------------------|
E||------------------------------|
     E               F# E F# E
E||------------------------------|
B||--9-9-9--9-9-9-9--11-9-11-9---|
G||--9-9-9--9-9-9-9--11-9-11-9---|
D||--9-9-9--9-9-9-9--11-9-11-9---|
A||------------------------------|
E||------------------------------| x3

on the fourth time play

     E               F#
E||------------------------------|
B||--9-9-9--9-9-9-9--11----------|
G||--9-9-9--9-9-9-9--11----------|
D||--9-9-9--9-9-9-9--11----------|
A||------------------------------|
E||------------------------------|
     E               F# E F# E
E||------------------------------|
B||--9-9-9--9-9-9-9--11-9-11---9-|
G||--9-9-9--9-9-9-9--11-9-11---9-|
D||--9-9-9--9-9-9-9--11-9-11---9-|
A||------------------------------|
E||------------------------------|

Thats all. I hope u like it. Please rate :D
            

comments powered by Disqus
↑ Back to top | The Rakes Tabs for We Danced Together. Lyrics for acoustic guitar and electric guitar. Tablatures and chords are parodies/interpretations of the original songs. You may use it for private study, scholarship, research or language learning purposes only