» » »

The Rakes, Violent Tabs (ver.1)

Artists:  A B C D E F G H I J K L M N O P Q R S T U V W X Y Z # 

Violent Tabs (ver.1)

The Rakes Tabs
 Rating:
4/5 (4 votes)
Violent lessons Tabs too difficult? Try these video lessons and learn fast
1
                -------------------------------------------------------------------------------
-------------------------------------------------------------------------------

Comments welcome, please rate, enjoy!

Tuning: EADGBe


Chords Used:            Power Chords:

    C#m  G#m   B          C#   G#
e|---4----4----7-----------x----x---|
B|---5----4----7-----------x----x---|
G|---6----4----8-----------6----x---|
D|---6----6----9-----------6----6---|
A|---4----6----9-----------4----6---|
E|---4----4----7-----------x----4---|


Intro: 

    d u  d u  d u  d u  d d  d d   
e|--4-4--4-4--4-4--4-4--4-7--4-7--|
B|--5-5--5-5--5-5--5-5--4-7--4-7--|
G|--6-6--6-6--6-6--6-6--4-8--4-8--|
D|--6-x--6-x--6-x--6-x--6-9--6-9--|
A|--4-x--4-x--4-x--4-x--6-9--6-9--|
E|--4-x--4-x--4-x--4-x--4-7--4-7--|



Verse: (Use the same strumming pattern in intro for all the verse's) 

C#m             
I suggested at a truce, you spat out some excuse,
      G#m   B  G#m   B
You're violent, violent,
C#m
They don't like you hanging round, you're bleeding on their ruby ground,
      G#m   B  G#m   B
You're violent, violent,
C#m
Took you to a part of town, when amber calming people down,
     G#m   B      G#m   B
It's no use, you're violent,
C#m
Just what everybody needs, another f*****g gallery,
       G#m   B  G#m   B    C#
You're violent, vi - o - lent.


Chorus: (Play fast power chords)

C#                     G#
We'll take your dreams or lack of money,
C#                     G#
We'll take your dreams or lack of money, (violent),
C#              G#
We'll take your dreams, (violent),
C#         G#
Or lack of money, (violent),
C#              G#
We'll take your dreams, (violent),
C#         G#
Or lack of money, (violent).


Pre Verse: (Same strumming pattern as intro)

C#m  G#m B G#m B 


Verse: (same chords as previous verse)

You would always hang around, the dangerous part of town,
For some excuse, for violence,
Bumping, into those with bling bling, on their wrists,
You're violent, violent,
Mum said keep an eye on you, she's scared of what you might do,
Your future, is over,
I would be amazed if you made it past 25,
You're violent, vi - o - lent.


Chorus: (same chords as previous chorus)

We'll take your dreams or lack of money,
We'll take your dreams or lack of money, (violent),
We'll take your dreams, (violent),
Or lack of money, (violent),
We'll take your dreams, (violent),
Or lack of money, (violent).

Solo:

e|----------------------------------------7--------|    ×4
B|--9-9-7-7---------7-------9-9-7-7---------9-7----|
G|----------9-6-9-9---9-6-----------9-6-9-------9--|
D|-------------------------------------------------|
A|-------------------------------------------------|
E|-------------------------------------------------|


Pre Verse: (Same strumming pattern as intro)

C#m  G#m B G#m B 


Verse: (Same chords as previous verse)

Introduce you some new friends, that would be the end of them,
You're violent, you'd eat them,
Gave you a chance to be a part of their society,
It's no use, you'd eat them,
People would run away, when the rage would hit the stage
You're violent, violent,
Demonic males are bound to fail, in the ground or in jail,
Violent, vi - o - lent.

Chorus/Outro: (same chords as all the other chorus', and continue through outro) 

We'll take your dreams or lack of money,
We'll take your dreams or lack of money, (violent),
We'll take your dreams, (violent),
Or lack of money, (violent),
We'll take your dreams, (violent),
Or lack of money, (violent),
We'll take your dreams, (violent),
Or lack of money, (violent),
We'll take your dreams, (violent),
Or lack of money, 


Key:
d = downstroke
u = upstroke
x = don't play this string
            
Submit corrections

comments powered by Disqus
↑ Back to top | The Rakes Tabs for Violent. Lyrics for acoustic guitar and electric guitar. 1 Tablatures and chords are parodies/interpretations of the original songs. You may use it for private study, scholarship, research or language learning purposes only