» » »

The Rakes, Trouble Tabs (ver.1)

Artists:  A B C D E F G H I J K L M N O P Q R S T U V W X Y Z # 

Trouble Tabs (ver.1)

The Rakes Tabs
 Rating:
4.2/5 (5 votes)
Trouble lessons Tabs too difficult? Try these video lessons and learn fast
                This is my favourite song from the album. Its the fourth that ive tabbed. Sorry about 
lyircs and any errors in the song, here it is:

Chords –

Em    – 7 7 9 9 8 7
D     - 5 5 7 7 7 5
Am    – 0 0 2 2 1 0
C     - 3 3 5 5 5 3
G     - 3 5 5 4 3 3
Eadd9 - 7 7 9 9 7 7
Cadd9 - 3 3 5 5 3 3
Fadd9 - 8 8 10 10 8 8

Intro: 0:00 – 0:11

E||------------------|
B||------------------|
G||------------------|
D||-5-5-5-5----------|
A||-5-5-5-5----------|
E||-3-3-3-3----------| x4

E||------------------|
B||------------------|
G||------------------|
D||-10-10-10-10------|
A||-10-10-10-10------|
E||-8--8--8--8-------| x4

E||------------------|
B||------------------|
G||------------------|
D||-14-14-14-14------|
A||-14-14-14-14------|
E||-12-12-12-12------| x4

E||------------------|
B||------------------|
G||------------------|
D||-12-12-12-12------|
A||-12-12-12-12------|
E||-10-10-10-10------| x4

Verse 1: 0:11 – 0:34

Without even thinking about it
I live with the idea
The way we were would last forever;
Yeah it all seemed pretty clear

E||------------------|
B||------------------|
G||------------------|
D||-5-5-5-5----------|
A||-5-5-5-5----------|
E||-3-3-3-3----------| x4

E||------------------|
B||------------------|
G||------------------|
D||-10-10-10-10------|
A||-10-10-10-10------|
E||-8--8--8--8-------| x4

E||------------------|
B||------------------|
G||------------------|
D||-14-14-14-14------|
A||-14-14-14-14------|
E||-12-12-12-12------| x4

E||------------------|
B||------------------|
G||------------------|
D||-12-12-12-12------|
A||-12-12-12-12------|
E||-10-10-10-10------| x4

But when the foundations shook
And the cracks started to appear
We saw the light in each others eyes
As the whole world disappeared.

E||------------------|
B||------------------|
G||------------------|
D||-5-5-5-5----------|
A||-5-5-5-5----------|
E||-3-3-3-3----------| x4

E||------------------|
B||------------------|
G||------------------|
D||-10-10-10-10------|
A||-10-10-10-10------|
E||-8--8--8--8-------| x4

E||------------------|
B||------------------|
G||------------------|
D||-14-14-14-14------|
A||-14-14-14-14------|
E||-12-12-12-12------| x4

E||------------------|
B||------------------|
G||------------------|
D||-12-12-12-12------|
A||-12-12-12-12------|
E||-10-10-10-10------| x4

Pre-chorus: 0:34 – 0:45

   Em
My history has come and gone
  D
I drive late at night
    Am
The only car on empty streets
   C
No welcome sign in sight

Chorus: 0:45 – 0:58

       G
If its trouble that you’re looking for
    Eadd9               Cadd9   Fadd9    Cadd9
Its trouble that you’ll find
    G
But sometimes trouble finds you
Eadd9      Cadd9    Fadd9  Cadd9
No matter where you hide

Played like this :

E||-3---7-7--3-3--8--8--3-3---|
B||-3---7-7--3-3--8--8--3-3---|
G||-4---9-9--5-5--10-10-5-5---|
D||-5---9-9--5-5--10-10-5-5---|
A||-5---7-7--3-3--8--8--3-3---|
E||-3---7-7--3-3--8--8--3-3---|

Interlude bit : 0:58 – 1:03

F#m – 10 10 12 12 11 10

then drum break then

Verse 2: 1:03 – 1:29

We got back from the party
On a come down for a week
Were we out there making history,
Or was it just a lack of sleep?

Guitar 1:

E||------------------|
B||------------------|
G||------------------|
D||-5-5-5-5----------|
A||-5-5-5-5----------|
E||-3-3-3-3----------| x4

E||------------------|
B||------------------|
G||------------------|
D||-10-10-10-10------|
A||-10-10-10-10------|
E||-8--8--8--8-------| x4

E||------------------|
B||------------------|
G||------------------|
D||-14-14-14-14------|
A||-14-14-14-14------|
E||-12-12-12-12------| x4

E||------------------|
B||------------------|
G||------------------|
D||-12-12-12-12------|
A||-12-12-12-12------|
E||-10-10-10-10------| x4

Guitar 2:

E||---------------------------|
B||---------------------------|
G||---------------------------|
D||-------------------9-------|
A||-10-10-10-12-12-12---10----|
E||---------------------------|

E||---------------------------|
B||---------------------------|
G||---------------------------|
D||-------------------9-9-----|
A||-10-10-10-12-12-12----12-10|
E||---------------------------|

E||---------------------------|
B||---------------------------|
G||---------------------------|
D||---------------------------|
A||-10-10-10------------------|
E||----------12-12-12-12--10--|

E||---------------------------|
B||---------------------------|
G||---------------------------|
D||---------------------------|
A||--------------------9-10---|
E||-10-10-10-12-12-12---------|

It seemed like we were waiting
In the wings to take our bow
The outsiders were whispering
This is our moment now

E||------------------|
B||------------------|
G||------------------|
D||-5-5-5-5----------|
A||-5-5-5-5----------|
E||-3-3-3-3----------| x4

E||------------------|
B||------------------|
G||------------------|
D||-10-10-10-10------|
A||-10-10-10-10------|
E||-8--8--8--8-------| x4

E||------------------|
B||------------------|
G||------------------|
D||-14-14-14-14------|
A||-14-14-14-14------|
E||-12-12-12-12------| x4

E||------------------|
B||------------------|
G||------------------|
D||-12-12-12-12------|
A||-12-12-12-12------|
E||-10-10-10-10------| x4

Guitar 2:

E||---------------------------|
B||---------------------------|
G||---------------------------|
D||-------------------9-------|
A||-10-10-10-12-12-12---10----|
E||---------------------------|

E||---------------------------|
B||---------------------------|
G||---------------------------|
D||-------------------9-9-----|
A||-10-10-10-12-12-12----12-10|
E||---------------------------|

E||---------------------------|
B||---------------------------|
G||---------------------------|
D||---------------------------|
A||-10-10-10------------------|
E||----------12-12-12-12--10--|

E||---------------------------|
B||---------------------------|
G||---------------------------|
D||---------------------------|
A||-------------------9-10----|
E||-10-10-10-12-12-12---------|

Pre chorus – 1:29 – 1:40

   E
My history has come and gone
    D
Sometimes I think I see
     Am
Your face in the rear-view mirror yeah
C
Looking back at me

Chorus – 1:40 – 2:04

       G
If its trouble that you’re looking for
    Eadd9               Cadd9   Fadd9    Cadd9
Its trouble that you’ll find
    G
But sometimes trouble finds you
Eadd9      Cadd9    Fadd9  Cadd9
No matter where you hide

Played like this :

E||-3---7-7--3-3--8--8--3-3---|
B||-3---7-7--3-3--8--8--3-3---|
G||-4---9-9--5-5--10-10-5-5---|
D||-5---9-9--5-5--10-10-5-5---|
A||-5---7-7--3-3--8--8--3-3---|
E||-3---7-7--3-3--8--8--3-3---|  x2

Interlude bit and solo : 2:04 – 2:31

F#m – 10 10 12 12 11 10

then

Guitar 1:

E||-10-10---------------|
B||--------------10-----|
G||--------12-12----12--|
D||---------------------|
A||---------------------|
E||---------------------|

Play twice

Guitar 2:

E||------------------|
B||------------------|
G||------------------|
D||-14-14-14-14------|
A||-14-14-14-14------|
E||-12-12-12-12------| x4

E||------------------|
B||------------------|
G||------------------|
D||-12-12-12-12------|
A||-12-12-12-12------|
E||-10-10-10-10------| x4

E||------------------|
B||------------------|
G||------------------|
D||-7-7-7------------|
A||-7-7-7------------|
E||-5-5-5------------| x4

E||------------------|
B||------------------|
G||------------------|
D||-10-10-10-10------|
A||-10-10-10-10------|
E||-8--8--8--8-------| x4

Play twice

Chorus : 2:31 – 2:55

       G
It was important to us
   Eadd9 Cadd9  Fadd9    Cadd9
To do more than just survive
    G
Surviving sometimes took up
Eadd9 Cadd9 Fadd9 Cadd9
Too much of our time

       G
If its trouble that you’re looking for
    Eadd9               Cadd9   Fadd9    Cadd9
Its trouble that you’ll find
    G
But sometimes trouble finds you
Eadd9      Cadd9    Fadd9  Cadd9
No matter where you hide

Both played like this :

E||-3---7-7--3-3--8--8--3-3---|
B||-3---7-7--3-3--8--8--3-3---|
G||-4---9-9--5-5--10-10-5-5---|
D||-5---9-9--5-5--10-10-5-5---|
A||-5---7-7--3-3--8--8--3-3---|
E||-3---7-7--3-3--8--8--3-3---|  x2


Outro – 2:55 – 3:15 (End)

E||-7-7--3-3-3--8--8--3-3-5-----|
B||-7-7--3-3-3--8--8--3-3-5-----|
G||-9-9--5-5-5--10-10-5-5-5-----|
D||-9-9--5-5-5--10-10-5-5-5-----|
A||-7-7--3-3-3--8--8--3-3-3-----|
E||-7-7--3-3-3--8--8--3-3-3-----|

E||-7-7--3-3-3--8--8--3-3-5-----|
B||-7-7--3-3-3--8--8--3-3-5-----|
G||-9-9--5-5-5--10-10-5-5-5-----|
D||-9-9--5-5-5--10-10-5-5-5-----|
A||-7-7--3-3-3--8--8--3-3-3-----|
E||-7-7--3-3-3--8--8--3-3-3-----|

E||-7-7--3-3-3--8--8--3-3-5---3-|
B||-7-7--3-3-3--8--8--3-3-5---3-|
G||-9-9--5-5-5--10-10-5-5-5---4-|
D||-9-9--5-5-5--10-10-5-5-5---5-|
A||-7-7--3-3-3--8--8--3-3-3---5-|
E||-7-7--3-3-3--8--8--3-3-3---3-|

Let the last G chord ring.

Thats it, sorry but the tab's quite long. Enjoy, pleaase rate and comment :P
            
Submit corrections

comments powered by Disqus
↑ Back to top | The Rakes Tabs for Trouble. Lyrics for acoustic guitar and electric guitar. Tablatures and chords are parodies/interpretations of the original songs. You may use it for private study, scholarship, research or language learning purposes only