» » »

The Rakes, The Final Hill Bass tabs (ver.1)

Artists:  A B C D E F G H I J K L M N O P Q R S T U V W X Y Z # 

The Final Hill Bass tabs (ver.1)

The Rakes Tabs
 Rating:
4/5 (4 votes)
The Final Hill lessons Tabs too difficult? Try these video lessons and learn fast
                -----------------------------------------------------------------
The Final Hill by The Rakes
-----------------------------------------------------------------
Tuning: E-A-D-G

Intro 1
G|---------------------------------------------------------------|
D|---------------------------------------------------------------|
A|---------------------------------------------------------------|  x2
E|-7--8-7-3------------------------------------------------------|

Intro 2
G|---------------------------------------------------------------|
D|---------------------------------------------------------------|
A|---------------------------------------------------------------|  x2
E|-7-7---7-7-7---7-8-8---8-7-7---7-3-3---3-3---3-3---3-3---3-3---|

Verse 1
G|--------------------------------------------------------------------|
D|--------------------------------------------------------------------|
A|--------------------------------------------------------------------| x4
E|-7-7-7-7-7-7-7-7---8-8-8-8-7-7-7-7---3-3-3-3-3-3-3-3-3-3-3-3-3-3-3-3|

Chorus 1
G|----------------------------------------------------------------------|
D|----------------------------------------------------------------------|
A|-7-7-7-7-7-7-7-7---3-3-3-3-3-3-3-3---2-2-2-2-2-2-2-2---0-0-0-0-0-0-0-0| x 2
E|----------------------------------------------------------------------|

Intro 2
G|---------------------------------------------------------------|
D|---------------------------------------------------------------|
A|---------------------------------------------------------------|  x2
E|-7-7---7-7-7---7-8-8---8-7-7---7-3-3---3-3---3-3---3-3---3-3---|

Verse 1
G|--------------------------------------------------------------------|
D|--------------------------------------------------------------------|
A|--------------------------------------------------------------------| x4
E|-7-7-7-7-7-7-7-7---8-8-8-8-7-7-7-7---3-3-3-3-3-3-3-3-3-3-3-3-3-3-3-3|

Chorus 1
G|----------------------------------------------------------------------|
D|----------------------------------------------------------------------|
A|-7-7-7-7-7-7-7-7---3-3-3-3-3-3-3-3---2-2-2-2-2-2-2-2---0-0-0-0-0-0-0-0| x 2
E|----------------------------------------------------------------------|

Interlude 1
G|---------------------------------------------------------------|
D|---------------------------------------------------------------|
A|-7-7-7-7---2-2-2-2---3-3-3-3-3-3-3-3---------------------------|  x4
E|---------------------------------------------------------------|

Interlude 2
G|------------------------------------------------------------------------|
D|------------------------------------------------------------------------|
A|-7-7-7-7-7-7-7-7---3-3-3-3-3-3-3-3-3---2-2-2-2-2-2-2-2---0-0-0-0-0-0-0-0|
E|------------------------------------------------------------------------|



G|---------------------------------------------------------------|
D|---------------------------------------------------------------|
A|---------------------------------------------------------------|
E|-3-3-3-3-3-3-3-3---2-2-2-2-2-2-2-2-2-2-2-2-2-2-2-2-------------|

Verse 1
G|--------------------------------------------------------------------|
D|--------------------------------------------------------------------|
A|--------------------------------------------------------------------| x2
E|-7-7-7-7-7-7-7-7---8-8-8-8-7-7-7-7---3-3-3-3-3-3-3-3-3-3-3-3-3-3-3-3|

Verse 2
G|-----------------------------------------------------------------------------------|
D|-----------------------------------------------------------------------------------|
A|-----------------------------------10-10-10-10-10-10-10-10-10-10-10-10-10-10-10-10-|x2
E|-7-7-7-7-7-7-7-7---8-8-8-8-7-7-7-7-------------------------------------------------|

Intro 2
G|---------------------------------------------------------------|
D|---------------------------------------------------------------|
A|---------------------------------------------------------------| 
E|-7-7---7-7-7---7-8-8---8-7-7---7-3-3---3-3---3-3---3-3---3-3---|

Chorus 1
G|----------------------------------------------------------------------|
D|----------------------------------------------------------------------|
A|-7-7-7-7-7-7-7-7---3-3-3-3-3-3-3-3---2-2-2-2-2-2-2-2---0-0-0-0-0-0-0-0|
E|----------------------------------------------------------------------|

Chorus 2
G|----------------------------------------------------------------------------|
D|----------------------------------------------------------------------------|
A|-7-7-7-7-7-7-7-7---3-3-3-3-3-3-3-3---2-2-2-2-2-2-2-2---12-12-12-12-12-12-12-|
E|----------------------------------------------------------------------------|

G|---------------------------------------------------------------|
D|---------------------------------------------------------------|
A|-12-12-12-12-12-12-12-12-0-------------------------------------|
E|---------------------------------------------------------------|
            
Submit corrections

comments powered by Disqus
↑ Back to top | The Rakes Bass for The Final Hill. Lyrics for acoustic guitar and electric guitar. Tablatures and chords are parodies/interpretations of the original songs. You may use it for private study, scholarship, research or language learning purposes only