» » »

The Rakes, Terror Tabs (ver.1)

Artists:  A B C D E F G H I J K L M N O P Q R S T U V W X Y Z # 

Terror Tabs (ver.1)

The Rakes Tabs
Rating:
3/5 (4 votes)
Terror lessons Tabs too difficult? Try these video lessons and learn fast
                
main bass line
e----------------------------------|
b----------------------------------|
g----------------------------------|
d----------------------------------|
a-7-7-7-7-7-7-7-7------------------|
E-----------------8-8-8-8--7-7-7-7-|

guitar riff
e-7----------7----------|
b---8-------8-----------|
g----9----9------7-7--9-|
d-----------------------| x4
a-----------------------|
E-----------------------|

then its the bass until 0.30 where this loud thrashy chord is played
e------------------|
b------------------|
g-22------22-------|
d-x--x5---x--x5----|
a-19------19-------|
E-0-------0--------|


then back to main guitar
e-7----------7----------|
b---8-------8-----------|
g----9----9------7-7--9-|
d-----------------------| x4
a-----------------------|
E-----------------------|


then he plays this weird sounding thing at 0.55
e-0--5-5--5-5--7-7-----0--5-5--5-5--8-8---|
b-----------------------------------------|
g-----------------------------------------|
d-----------------------------------------|
a-----------------------------------------|
E-----------------------------------------|

then back to the thrashy chord

then there is a breakdown that finsihes on this chord at 1.33
e-0
b-8
g-9
d-9
a-0
E-x


then the drums again start and this is played at 1.42
e-0----xxxxxxx--0-|
b-8----xxxxxxx--8-|
g-9----xxxxxxx--9-|
d-9----xxxxxxx--9-|
a-0----xxxxxxx--0-|
E-x----xxxxxxx--x-|


then back to this
guitar riff
e-7----------7----------|
b---8-------8-----------|
g----9----9------7-7--9-|
d-----------------------| x4
a-----------------------|
E-----------------------|


then its the bass line to the end
e----------------------------------|
b----------------------------------|
g----------------------------------|
d----------------------------------|
a-7-7-7-7-7-7-7-7------------------|
E-----------------8-8-8-8--7-7-7-7-|
            

comments powered by Disqus
↑ Back to top | The Rakes Tabs for Terror. Lyrics for acoustic guitar and electric guitar. Tablatures and chords are parodies/interpretations of the original songs. You may use it for private study, scholarship, research or language learning purposes only