>
 >
Suspicious Eyes

Suspicious Eyes Guitar Tabs

The Rakes - Suspicious Eyes chords, tabs, tablatures, lyrics

Guitar lessons | Add/correct | Request | Top 50 tabs Artists:  A B C D E F G H I J K L M N O P Q R S T U V W X Y Z 0-9

Suspicious Eyes Guitar Tabs – The Rakes

CD, Sheet music, Poster

Do you like Suspicious Eyes? Share with your friends now
Tabs
This is a fairly easy song to play and will be the second single from Ten New Messages. 
already tabbed We Danced Together, Little Superstitions, Leave the City and Come Home 
Trouble (a long as it is accepted). Here's this tab:

Chords :
D  – x x 7 7 7 5
Bm – X X 4 4 3 2

Intro – 0:00 – 0:11

E||---------------------------------|
B||---------------------------------|
G||---------------------------------|
D||-7-7-7-7-5-5-5-5-----------------|
A||-----------------7-7-7--5-5-5-5--|
E||---------------------------------|

E||---------------------------------|
B||---------------------------------|
G||---------------------------------|
D||---------------------------------|
A||---------------------------------|
E||-7-7-7-6-5-5-5-5-7-7-7-5-5-5-5---|

E||---------------------------------|
B||---------------------------------|
G||---------------------------------|
D||-7-7-7-7-5-5-5-5-----------------|
A||-----------------7-7-7--5-5-5-5--|
E||---------------------------------|

E||---------------------------------|
B||---------------------------------|
G||---------------------------------|
D||---------------------------------|
A||---------------------------------|
E||-7-7-7-6-5-5-5-5-7-7-7-5-5-5-5---|

Verse 1 – 0:11 – 0:35

Riff starts
Another Wednesday morning on the train to work
And my weekend’s spread into the middle of the week

Riff starts
I’m boosing every night, 3 hours sleep
Check out the people or stare at my feet

Riff starts
Guy next to me pretends to read the metro
Sort of bloke who calls everybody bro

Riff starts
But only met a black guy at uni tho
And a lady with a kid watchin sum guy meet the train

Riff:

E||---------------------------------|
B||---------------------------------|
G||---------------------------------|
D||---------------------------------|
A||---------------------------------|
E||-8-8-8-8-8-8-8-8-8-8-8-8-8-8-8-7-|

E||---------------------------------|
B||---------------------------------|
G||---------------------------------|
D||---------------------------------|
A||---------------------------------|
E||-5-5-5-5-5-5-5-5-5-5-5-5-5-5-5-5-|

Chorus – 0:35 – 0:59

   D        Bm           D       Bm
Suspicious eyes, looking for the end (got a ticket but I aint got time)
   D        Bm           D       Bm
Suspicious eyes, looking for the end (got a ticket but I aint got time)

Interlude – 0:59 – 1:11

E||---------------------------------|
B||---------------------------------|
G||---------------------------------|
D||-7-7-7-7-5-5-5-5-----------------|
A||-----------------7-7-7--5-5-5-5--|
E||---------------------------------|

E||---------------------------------|
B||---------------------------------|
G||---------------------------------|
D||---------------------------------|
A||---------------------------------|
E||-7-7-7-6-5-5-5-5-7-7-7-5-5-5-5---|

E||---------------------------------|
B||---------------------------------|
G||---------------------------------|
D||-7-7-7-7-5-5-5-5-----------------|
A||-----------------7-7-7--5-5-5-5--|
E||---------------------------------|

E||---------------------------------|
B||---------------------------------|
G||---------------------------------|
D||---------------------------------|
A||---------------------------------|
E||-7-7-7-6-5-5-5-5-7-7-7-5-5-5-5---|

2nd Verse – 1:11 – 1:47

Riff starts
A young Asian guy with a rucksack on his back
Jumps onto the tube is he ready to attack?

Riff starts
God just imagine it being all over
Stuck in the tube with nowhere to go

Riff starts
All the smoke and confusion
Stuck in mist all coughing

Riff starts                                  and stops
The man with the paper he moves from his seat
Why did that kid stand so close to me?

Riff starts
I’m sick of them moaning that they’re being picked on
But its them running round with the bombs

Riff starts
So grab the kids leave London town
Join a white flight to Surrey and beyond

Riff:

only play first half for “man with the paper” bit)

E||---------------------------------|
B||---------------------------------|
G||---------------------------------|
D||---------------------------------|
A||---------------------------------|
E||-8-8-8-8-8-8-8-8-8-8-8-8-8-8-8-7-|

E||---------------------------------|
B||---------------------------------|
G||---------------------------------|
D||---------------------------------|
A||---------------------------------|
E||-5-5-5-5-5-5-5-5-5-5-5-5-5-5-5-5-|

Chorus – 1:47 – 2:10

   D        Bm           D       Bm
Suspicious eyes, looking for the end (got a ticket but I aint got time)
   D        Bm           D       Bm
Suspicious eyes, looking for the end (got a ticket but I aint got time)

Bridge and rap – 2:10 – 2:52

E||----------------------------|
B||----------------------------|
G||----------------------------|
D||-8-8--5-5--10-10--3-3--3-5--|
A||-8-8--5-5--10-10--3-3--3-5--|
E||-6-6--3-3--8--8---1-1--1-3--|

E||----------------------------|
B||----------------------------|
G||----------------------------|
D||-8-8--5-5--10-10--3-3--3-5--|
A||-8-8--5-5--10-10--3-3--3-5--|
E||-6-6--3-3--8--8---1-1--1-3--|

Then no guitar until the end of the rap which is :

These people are assuming who I am, but they’re wrong
Got a beard and a bag so they think I’ve got a bomb
I saw everyone’s reaction soon as I stepped through the door
All acting like they’ve never seen a brown person before
The guy in front of me he should be reading his paper
I’m checking my watch cos there’s an interview I’m gonna be late for
Every time I step on the tube there’s a dude in his suit
Who aint got no manners, doesn’t he know staring is rude?
And if you’re so scared move, I’m off at the next stop mate
Just keep staring.

Chorus – 2:52 – 3:17

   D        Bm           D       Bm
Suspicious eyes, looking for the end (got a ticket but I aint got time)
   D        Bm           D       Bm
Suspicious eyes, looking for the end (got a ticket but I aint got time)

Outro - 3:17 – 3:48 (End)

E||---------------------------------|
B||---------------------------------|
G||---------------------------------|
D||-7-7-7-7-5-5-5-5-----------------|
A||-----------------7-7-7--5-5-5-5--|
E||---------------------------------|

E||---------------------------------|
B||---------------------------------|
G||---------------------------------|
D||---------------------------------|
A||---------------------------------|
E||-7-7-7-6-5-5-5-5-7-7-7-5-5-5-5---|

E||---------------------------------|
B||---------------------------------|
G||---------------------------------|
D||-7-7-7-7-5-5-5-5-----------------|
A||-----------------7-7-7--5-5-5-5--|
E||---------------------------------|

E||---------------------------------|
B||---------------------------------|
G||---------------------------------|
D||---------------------------------|
A||---------------------------------|
E||-7-7-7-6-5-5-5-5-7-7-7-5-5-5-5---|

E||---------------------------------|
B||---------------------------------|
G||---------------------------------|
D||-7-7-7-7-5-5-5-5-----------------|
A||-----------------7-7-7--5-5-5-5--|
E||---------------------------------|

E||---------------------------------|
B||---------------------------------|
G||---------------------------------|
D||---------------------------------|
A||---------------------------------|
E||-7-7-7-6-5-5-5-5-7-7-7-5-5-5-5---|

E||---------------------------------|
B||---------------------------------|
G||---------------------------------|
D||-7-7-7-7-5-5-5-5-----------------|
A||-----------------7-7-7--5-5-5-5--|
E||---------------------------------|

E||---------------------------------|
B||---------------------------------|
G||---------------------------------|
D||---------------------------------|
A||---------------------------------|
E||-7-7-7-6-5-5-5-5-7-7-7-5-5-5-5---|

E||---------------------------------|
B||---------------------------------|
G||---------------------------------|
D||-7-----\-----5-------------------|
A||---------------------------------|
E||---------------------------------|

Thats it, please rate and comment :P





Comments


Popular The Rakes tabs & chords
Auslandmission Bass Tabs
Strasbourg 1 Bass Tabs
The Final Hill Bass Tabs
We Danced Together Chords
Strasbourg Tabs
Terror Tabs
Trouble Tabs
Violent Tabs
Im Just A Man With A Job Ukulele
Violent Ukulele


Song lyrics



↑ Back to top | Tablatures and chords are parodies/interpretations of the original songs. You may use it for private study, scholarship, research or language learning purposes only
© 2014 AZChords.com Contact us | Privacy policy | DMCA | Add/correct tabs | Request tabs | Top 50 tabs