» » »

Retreat Tabs (ver.1)

Artists:  A B C D E F G H I J K L M N O P Q R S T U V W X Y Z # 

Retreat Tabs (ver.1)

The Rakes
Rating:
4/5 (2 votes)

Hard to play? Try these video lessons and learn fast.
                intro
e------------------------------------------|
b------------------------------------------|
g------------------------------------------|
d------------------------------------------|
a------------------------------------------|
e--(3)-(3)-(3)-(3)-(3)-(3)-(3)-------------|harmonics

e-------------------------------------------------------|
b-------------------------------------------------------|
g-------------------------------------------------------|
d-------------------------------------------------------|
a-------------------------------------------------------|
e-3-3---(3)-(3)---3-3---(3)-(3)---3-3---(3)-(3)----1-1-1|

play the above twice when the drums come in then go into the main riff below


e-----------------------------------------|
b-----------------------------------------|
g-3-3-3-3-3-3-3-3-3-3-3---5-5-5-5---------|
d-5-5-5-5-5-5-5-5-5-5-5---5-5-5-5---------|
a-----------------------------------------|
e-----------------------------------------|
pm.....................

(22 seconds) bridge
    F           C
e--------------------------|
b--------------------------|
g--------------------------|
d-3-3-3-3----10-10-10-10---|
a-3-3-3-3----10-10-10-10---|
e-1-1-1-1----8--8--8---8---|

then 

e------------------------------------------|
b------------------------------------------|
g-5-5-5-5-5-3-0-0-0-3-3-3------------------|
d-5-5-5-5-5-5-0-0-0-5-5-5------------------|
a------------------------------------------|
e------------------------------------------|

then repeat all the above twice then the chorus below


e-------------------------------------|
b-------------------------------------|
g-15-x7---17-x7----18-x7-----17-x7----|
d-15------17-------18--------17-------|
a-------------------------------------|
E-------------------------------------| play the chorus twice then back into the main song

all the above is repeated then it goes into the "walk home, retreat, to sleep" 
bit. play the root notes as chords

  A#        C        C#       C
e-6---------8--------9--------8-----|
b-6---------8--------9--------8-----|
g-7-x7------9-x7-----10-x7----9-x7--|
d-8---------10-------11-------10----|
a-8---------10-------11-------10----|
E-6---------8--------9--------8-----|


  A#        C        C#       D#
e-6---------8--------9--------11-----|
b-6---------8--------9--------11-----|
g-7-x7------9-x7-----10-x7----12-x7--|
d-8---------10-------11-------13-----|
a-8---------10-------11-------13-----|
E-6---------8--------9--------11-----|

solo (rough)

e-12-12-12-12-12-12-12---9-9-9-9--7---|
b-12-12-12-12-12-12-12---9-9-9-9--7---|
g-------------------------------------|
d-------------------------------------|
a-------------------------------------|
E-------------------------------------|

e-14-14-14-14-14-14-14---9-9-9-9--7---|
b-12-12-12-12-12-12-12---9-9-9-9--7---|
g-------------------------------------|
d-------------------------------------|
a-------------------------------------| x4
E-------------------------------------|
            
Hard to play? Try these video lessons and learn fast. | Correct




comments powered by Disqus
↑ Back to top | Tablatures and chords are parodies/interpretations of the original songs. You may use it for private study, scholarship, research or language learning purposes only