» » »

Open Book Tabs (ver.1)

Artists:  A B C D E F G H I J K L M N O P Q R S T U V W X Y Z # 

Open Book Tabs (ver.1)

The Rakes
Rating:
4/5 (1 vote)

Hard to play? Try these video lessons and learn fast.
                Open Book by The Rakes


Intro/Verse x2
e-7-7-7-7-7-7-7-7-7-7-7-7-7-7-7-7-|
B-9-9-9-9-9-9-9-9-9-9-9-9-9-9-9-9-|
G-8-8-8-8-8-8-8-8-9-9-9-9-9-9-9-9-|
D---------------------------------|
A---------------------------------|
E---------------------------------|

e-7-7-7-7-7-7-7-7-7-7-7-7-7-7-7-7-|
B-9-9-9-9-9-9-9-9-9-9-9-9-9-9-9-9-|
G-8-8-8-8-8-8-8-8-9-9-9-9-9-9-9-9-|
D---------------------------------|
A---------------------------------|
E---------------------------------|


Chorus ("Wohoho...") x2
e-------------------------------------------------|
B-------------------------------------------------|
G-8--8-8-6--6-6-6-6-8-----------------------------|
D-8--8-8-6--6-6-6-6-8-9---2--2-2-4--4-4-6-6-6-9---|
A-6--6-6-4--4-4-4-4-6-9---2--2-2-4--4-4-6-6-6-9---|
E---------------------7---0--0-0-2--2-2-4-4-4-7---|


Break ("Thigs are going to slide...") x2
e-7-7-7-7-7-7-7-7-7-7-7-7-7-7-7-7-7-7-7-7-7-7-7-7-8-8-8-8-8-8-8-8-|
B-8-8-8-8-8-8-8-8-7-7-7-7-7-7-7-7-8-8-8-8-8-8-8-8-8-8-8-8-8-8-8-8-|
G-9-9-9-9-9-9-9-9-7-7-7-7-7-7-7-7-7-7-7-7-7-7-7-7-9-9-9-9-9-9-9-9-|
D-----------------------------------------------------------------|
A-----------------------------------------------------------------|
E-----------------------------------------------------------------|


Outro ("You are not...")
e-----------------------------------------------------------------|
B-----------------------------------------------------------------|
G-9-9-9-9-9-9-9-9-6-6-6-6-6-6-6-6---------------------------------|
D-9-9-9-9-9-9-9-9-6-6-6-6-6-6-6-6-7-7-7-7-7-7-7-7-9-9-9-9-9-9-9-9-|
A-7-7-7-7-7-7-7-7-4-4-4-4-4-4-4-4-7-7-7-7-7-7-7-7-9-9-9-9-9-9-9-9-|
E---------------------------------5-5-5-5-5-5-5-5-7-7-7-7-7-7-7-7-|


It ends on :
e----
B----
G-9~-
D-9~-
A-7~-
E----


I think that's it but I know this tab isn't 100% occurate
Polo
            
Hard to play? Try these video lessons and learn fast. | Correct




comments powered by Disqus
↑ Back to top | Tablatures and chords are parodies/interpretations of the original songs. You may use it for private study, scholarship, research or language learning purposes only