» » »

The Rakes, Little Superstitions Bass tabs (ver.1)

Artists:  A B C D E F G H I J K L M N O P Q R S T U V W X Y Z # 

Little Superstitions Bass tabs (ver.1)

The Rakes Tabs
 Rating:
4/5 (4 votes)
Little Superstitions lessons Tabs too difficult? Try these video lessons and learn fast
1
                INTRO (quiet)
0:00
G|-------------------------------|
D|-------------------------------|
A|-----------------2---2---2---2-| x2
E|-3---3---3---3-----------------|

VERSE
0:07 PART A
G|-------------------------------------|
D|-------------------------------------|
A|-7------7-9-7------------------------| x2
E|--------------10---7------10-10---10-|

0:14 PART B
G|---------------------------------|
D|---------------------------------|
A|------------------2------2-2---2-| x2
E|-3------3-3---3------------------|

Part A repeats then

CHORUS
0:29
G|-------------------------------------------------|
D|-------------------------------------------------|
A|-5-5-5-5-5-5-5-5---------5-5-5-5---------5-5-5-5-|
E|-----------------7-7-7-7---------7-7-7-7---------|

0:34						x2
G|-------------------------------------------------|
D|-------------------------------------------------|
A|-9-9-9-9-9-9-9-9-9-9-9-9-9-9-9-9-5-5-5-5-5-5-5-5-|
E|-------------------------------------------------|

BRIDGE 1
0:50
G|---------------------------------------------------------------------------------|
D|---------------------------------------------------------------------------------|
A|-7-7-7-7-7-7-7-7-7-7-7-7-7-7-7-7-10-10-10-10-10-10-10-10-10-10-10-10-10-10-10-10-|
E|---------------------------------------------------------------------------------|

BRIDGE 2
0:58
G|---------------------------------|
D|---------------------------------|
A|-5-5-5-5-5-5-5-5-5-5-5-5-5-5-5-5-|
E|---------------------------------|


VERSE (B A B A)

CHORUS

BRIDGE 1

CHORUS 2
1:58
G|------------------------------------------------------------|
D|-----------------5------5-5---------------------------------|
A|---------------------------------5------5-5------5------5-5-|
E|-7------7-7-------------------------------------------------|

2:06								x2
G|------------------------------------------------------------|
D|-9------9-9------5------5-5---------------------------------|
A|---------------------------------5------5-5------5------5-5-|
E|------------------------------------------------------------|

BREAK (quiet)
2:28
G|-14-14-14-14-14-14-14-14-------------14-14-14---------------14-14-14---|
D|-------------------------16-16-16---------------16-16-16---------------|
A|-----------------------------------------------------------------------|
E|-----------------------------------------------------------------------|

2:33
   x2
G|-------------------------------------------|
D|-16-16-16---14-14-14---16-16-16---14-14-14-|
A|-------------------------------------------|
E|-------------------------------------------|

CHORUS 1(quiet getting louder)

BRIDGE 1

CHORUS 2 (without last two notes on the repeat)


This is my first tab so let me know what you think.
Enjoy!
            
Submit corrections

comments powered by Disqus
↑ Back to top | The Rakes Bass for Little Superstitions. Lyrics for acoustic guitar and electric guitar. 1 Tablatures and chords are parodies/interpretations of the original songs. You may use it for private study, scholarship, research or language learning purposes only