>
 >
22 Grand Job

22 Grand Job Guitar Tabs

The Rakes - 22 Grand Job chords, tabs, tablatures, lyrics

Guitar lessons | Add/correct | Request | Top 50 tabs Artists:  A B C D E F G H I J K L M N O P Q R S T U V W X Y Z 0-9

22 Grand Job Guitar Tabs – The Rakes

CD, Sheet music, Poster

Do you like 22 Grand Job? Share with your friends now
Bass TabsTabsTabs v2Tabs v3
-------------------------------------------------------------------------------
-------------------------------------------------------------------------------

Tuning: Standard

Note: this is the version from the official video.

Verse

Only bass
 
G--------------------------|
D--------------------------|
A--7--7--7--7--7--7--7--7--|
E--------------------------|

Chorus

Guitar 1

e--------------------------|--------------------------|
B--------------------------|--------------------------|
G--------------------------|--------------------------| x4
D--------------9--11-9-----|--------------------------|  
A--7--9--9--11----------11-|--9--7-----------7--9--7--|
E--------------------------|--------9--7--9-----------|

e--------------------------|
B--------------------------|
G--------------------------| let ring
D--------------------------|
A--7-----------------------|
E--------------------------|

Guitar 2

e----------(7)-------------|-(4)----------------------|
B-(9)------(7)-------------|-(5)----------------------|
G--9-------(8)-------------|--6-----------------------| x4
D--9--------9--------------|--6-----------------------|  
A--7--------9--------------|--4-----------------------|
E-----------7--------------|--------------------------|

e--------------------------|
B-(9)----------------------|
G--9-----------------------|
D--9-----------------------|
A--7-----------------------|
E--------------------------|

Note: these chords can either be played as regular barre chords or power chords.

Verse

Only bass
 
G--------------------------|
D--------------------------|
A--7--7--7--7--7--7--7--7--|
E--------------------------|

Chorus

Guitar 1

e--------------------------|--------------------------|
B--------------------------|--------------------------|
G--------------------------|--------------------------| x4
D--------------9--11-9-----|--------------------------|  
A--7--9--9--11----------11-|--9--7-----------7--9--7--|
E--------------------------|--------9--7--9-----------|

Guitar 2

e----------(7)-------------|-(4)----------------------|
B-(9)------(7)-------------|-(5)----------------------|
G--9-------(8)-------------|--6-----------------------| x4
D--9--------9--------------|--6-----------------------|  
A--7--------9--------------|--4-----------------------|
E-----------7--------------|--------------------------|

Solo

Guitar 1

e--------------------------|--------------------------|
B--------------------------|--------------------------|
G--------------------------|--------------------------|
D--------------------------|--------------------------|  
A--7---9/11--11--9----9--9-|-----7--------------7--7--|
E--------------------------|-----------7--9-----------|

e--------------------------|--------------------------|
B--------------------------|--------------------------|
G--------------------------|--------------------------|
D--------------------------|-----------9-----9--------|  
A------9/11--11--9----9--9-|-----7--------------7--7--|
E--------------------------|--------------------------|

e--------------------------|--------------------------|
B--------------------------|--------------------------|
G--------------------------|--------------------------|
D--------------------------|--------------------------|  
A------9/11--11--9----9--9-|-----7--------------7--7--|
E--------------------------|-----------7--9-----------|
                                                   
e--------------------------|--------------------------|
B--------------------------|--------------------------|
G--------------------------|--------------------------|
D--------------------------|--------------9-----------|  
A------9/11--11--9----9--9-|-----7-----11----11-9--7--| 
E--------------------------|--------------------------|

e--------------------------|
B--------------------------|
G--------------------------| let ring
D--------------------------|
A--7-----------------------|
E--------------------------|


Guitar 2

e----------(7)-------------|-(4)----------------------|
B-(9)------(7)-------------|-(5)----------------------|
G--9-------(8)-------------|--6-----------------------| x4
D--9--------9--------------|--6-----------------------|  
A--7--------9--------------|--4-----------------------|
E-----------7--------------|--------------------------|

e--------------------------|
B-(9)----------------------|
G--9-----------------------|
D--9-----------------------|
A--7-----------------------|
E--------------------------|

Clapping section 

Only bass
 
G--------------------------|--------------------------|
D--------------------------|--------------------------| x2
A--7--7--7--7--7-----------|--------------------------| 
E--------------------------|--------------------------|

Verse (I am not really sure about this)

Guitar 1

PMииииииииииииииииииииииииииииииииииииииииииииииииииии|
e--------------------------|--------------------------|
B--------------------------|--------------------------|
G--------------------------|--------------------------| x3
D--------------------------|--------------------------| 
A--7-----------------------|-----------7--7--7--7--7--|
E--------------------------|--------------------------|

PMииииииииииииииииииииииииииииииииииииииииииииииииииии|
e--------------------------|--------------------------|
B--------------------------|--------------------------|
G--------------------------|--------------------------|
D--------------------------|--------------------------|
A--7--7--7-----7--7--7-----|--7--7--7-----7--7--7-----|
E--------------------------|--------------------------|

Chorus

Guitar 1

e--------------------------|--------------------------|
B--------------------------|--------------------------|
G--------------------------|--------------------------| x4
D--------------9--11-9-----|--------------------------|  
A--7--9--9--11----------11-|--9--7-----------7--9--7--|
E--------------------------|--------9--7--9-----------|

e--------------------------|--------------------------|
B--------------------------|--------------------------|
G--------------------------|--------------------------| x4
D--------------10-12-10----|--------------------------|  
A--8--10-10-12----------12-|--10-8-----------8--10-8--|
E--------------------------|--------10-8--10----------|

e--------------------------|
B--------------------------|
G---------------(8)--10----| 
D-----------(8)------10----|
A-(8)----------------8-----|
E--------------------------|

Guitar 2

e----------(7)-------------|-(4)----------------------|
B-(9)------(7)-------------|-(5)----------------------|
G--9-------(8)-------------|--6-----------------------| x4
D--9--------9--------------|--6-----------------------|  
A--7--------9--------------|--4-----------------------|
E-----------7--------------|--------------------------|

e----------(8)-------------|-(5)----------------------|
B-(10)-----(8)-------------|-(6)----------------------|
G--10------(9)-------------|--7-----------------------| x4
D--10-------10-------------|--7-----------------------|  
A--8--------10-------------|--5-----------------------|
E-----------8--------------|--------------------------|

e--------------------------|
B--------------------------|
G--10----------------10----| 
D--10----------------10----|
A--8-----------------8-----|
E--------------------------|

Note: the last time the chorus is played, it is slowed down at the end.

| ^  bend string
| /  slide up
| \  slide down
| h  hammer-on
| p  pull-off
| ~  vibrato
| +  harmonic
| x  Mute note
===============================================================================





Comments


Popular The Rakes tabs & chords
Retreat Bass Tabs
Time To Stop Talking Bass Tabs
22 Grand Job 1 Tabs
Strasbourg 4 Tabs
Terror Tabs
Terror 1 Tabs
Trouble Tabs
We Danced Ogether Tabs
When Tom Cruise Cries Tabs
We Danced Together Ukulele


Song lyrics



↑ Back to top | Tablatures and chords are parodies/interpretations of the original songs. You may use it for private study, scholarship, research or language learning purposes only
© 2014 AZChords.com Contact us | Privacy policy | DMCA | Add/correct tabs | Request tabs | Top 50 tabs