>
 >
Store Bought Bones 3

Store Bought Bones 3 Guitar Tabs

The Raconteurs - Store Bought Bones 3 chords, tabs, tablatures, lyrics

Guitar lessons | Add/correct | Request | Top 50 tabs Artists:  A B C D E F G H I J K L M N O P Q R S T U V W X Y Z 0-9

Store Bought Bones 3 Guitar Tabs – The Raconteurs

CD, Sheet music, Poster

Do you like Store Bought Bones 3? Share with your friends now
Bass TabsTabsTabs v2Tabs v3
The raconteurs: store bought bones solo.

My first solo tab, no1 has tabbed this song yet!!!
listen to the song for timing


Tuning=standard

>>>>>>>> = fast picking picking


|--s19>>>>>>>>>>>>>>>>21-----------------|
|----------------------------------------|
|----------------------------------------|
|----------------------------------------|
|----------------------------------------|
|----------------------------------------|


|--19>>>>>>>>21-19>>>>>21-19>>>21--19-21-|
|----------------------------------------|
|----------------------------------------|
|----------------------------------------|
|----------------------------------------|

|--21b>>>>>>>>>>>>>21b(bend more than previous)21b>>>>>>>----|
|-------------------------------------------------------------|
|-------------------------------------------------------------|
|-------------------------------------------------------------|
|-------------------------------------------------------------|
|-------------------------------------------------------------|

|--19-19-19-19-17----19-17-----21-|
|-----------------19-------19-----|
|---------------------------------|
|---------------------------------|
|---------------------------------|
|---------------------------------|

|--19-19-19-19-17----19-17--------|
|-----------------19-------19--16-|
|---------------------------------|
|---------------------------------|
|---------------------------------|

|---------------------------------|
|---------------------------------|
|---14>>>>16-14-------------------|
|-----------------16--------------|
|---------------------------------|
|---------------------------------|





Comments


Popular The Raconteurs tabs & chords
Attention Bass Tabs
Steady As She Goes 5 Bass Tabs
The Switch And The Spur 2 Bass Tabs
Attention Tabs
Bane Rendition Tabs
Five On The Five Tabs
It Aint Easy Tabs
Salute Your Solution 4 Tabs
Yellow Sun 1 Tabs
Together Ukulele


Song lyrics



↑ Back to top | Tablatures and chords are parodies/interpretations of the original songs. You may use it for private study, scholarship, research or language learning purposes only
© 2014 AZChords.com Contact us | Privacy policy | DMCA | Add/correct tabs | Request tabs | Top 50 tabs