» » »

Steady As She Goes Tabs (ver.8)

Artists:  A B C D E F G H I J K L M N O P Q R S T U V W X Y Z # 

Steady As She Goes Tabs (ver.8)

The Raconteurs
Rating:
0/5 (0 votes)

Hard to play? Try these video lessons and learn fast.
                E|-----------------|
B|-----------------|
G|-7~--7~--6~--4~--|
D|-----------------|
A|-----------------|
E|-----------------|

E|-----------------|
B|-----------------|
G|-7~--7~--6~--4~--|
D|-----------------|
A|-----------------|
E|-----------------|

E|----------------------|
B|---4---------2----0---|
G|---4---------2----1---|
D|---4----4----2----2---|
A|--------4-------------|
E|--------2-------------|

E|----------------------|
B|---4---------2----0---|
G|---4---------2----1---|
D|---4----4----2----2---|
A|--------4-------------|
E|--------2-------------|

E|----------------------|
B|---4---------2----0---|
G|---4---------2----1---|
D|---4----4----2----2---|
A|--------4-------------|
E|--------2-------------|
  
  Find yourself a girl, and settle down
E|----------------------|
B|---4---------2----0---|
G|---4---------2----1---|
D|---4----4----2----2---|
A|--------4-------------|
E|--------2-------------|
  Live a simple life in a quiet town
E|----------------------|
B|---4---------2----0---|
G|---4---------2----1---|
D|---4----4----2----2---|
A|--------4-------------|
E|--------2-------------|







Steady as she goes (steady as she goes) 
E|----------------------------------|
B|----------------------------------|
G|---4-4-4-----------2-2-2----------|
D|---4-4-4---4-4-4---2-2-2---2-2-2--|
A|---2-2-2---4-4-4---0-0-0---2-2-2--|
E|-----------2-2-2-----------0-0-0--|

Steady as she goes (steady as she goes
E|----------------------------------|
B|----------------------------------|
G|---4-4-4-----------2-2-2----------|
D|---4-4-4---4-4-4---2-2-2---2-2-2--|
A|---2-2-2---4-4-4---0-0-0---2-2-2--|
E|-----------2-2-2-----------0-0-0--|

So steady as she goes
E|----------------------------------|
B|----------------------------------|
G|---4-4-4-----------2-2-2----------|
D|---4-4-4---4-4-4---2-2-2---2-2-2--|
A|---2-2-2---4-4-4---0-0-0---2-2-2--|
E|-----------2-2-2-----------0-0-0--|

E|----------------------|
B|---4---------2----0---|
G|---4---------2----1---|
D|---4----4----2----2---|
A|--------4-------------|
E|--------2-------------|

Your friends have shown a kink in the single life 
E|----------------------|
B|---4---------2----0---|
G|---4---------2----1---|
D|---4----4----2----2---|
A|--------4-------------|
E|--------2-------------|

You've had too much to think; now you need a wife
E|----------------------|
B|---4---------2----0---|
G|---4---------2----1---|
D|---4----4----2----2---|
A|--------4-------------|
E|--------2-------------|

Steady as she goes (steady as she goes) 
E|----------------------------------|
B|----------------------------------|
G|---4-4-4-----------2-2-2----------|
D|---4-4-4---4-4-4---2-2-2---2-2-2--|
A|---2-2-2---4-4-4---0-0-0---2-2-2--|
E|-----------2-2-2-----------0-0-0--|



Steady as she goes (steady as she goes
E|----------------------------------|
B|----------------------------------|
G|---4-4-4-----------2-2-2----------|
D|---4-4-4---4-4-4---2-2-2---2-2-2--|
A|---2-2-2---4-4-4---0-0-0---2-2-2--|
E|-----------2-2-2-----------0-0-0--|

So steady as she goes
E|----------------------------------|
B|----------------------------------|
G|---4-4-4-----------2-2-2----------|
D|---4-4-4---4-4-4---2-2-2---2-2-2--|
A|---2-2-2---4-4-4---0-0-0---2-2-2--|
E|-----------2-2-2-----------0-0-0--|

Well here we go again; you've found yourself a friend that knows you well
E|------------------------------------------------------|
B|------------------------------------------------------|
G|--------------------2-2-2-2-2-2-2-2--4-4-4-4-4-4-4-4--|
D|---5-5-5-5-5-5-5-5--2-2-2-2-2-2-2-2--4-4-4-4-4-4-4-4--|
A|---5-5-5-5-5-5-5-5--0-0-0-0-0-0-0-0--2-2-2-2-2-2-2-2--|
E|---3-3-3-3-3-3-3-3------------------------------------|

But no matter what you do, you'll always feel as though you tripped and fell
E|------------------------------------------------------|
B|------------------------------------------------------|
G|--------------------2-2-2-2-2-2-2-2-------------------|
D|---5-5-5-5-5-5-5-5--2-2-2-2-2-2-2-2--2-2-2-2-2-2-2-2--|
A|---5-5-5-5-5-5-5-5--0-0-0-0-0-0-0-0--2-2-2-2-2-2-2-2--|
E|---3-3-3-3-3-3-3-3-------------------0-0-0-0-0-0-0-0--|
    So steady as she goes
E|----------------------|
B|---4---------2----0---|
G|---4---------2----1---|
D|---4----4----2----2---|
A|--------4-------------|
E|--------2-------------|
  When you have completed what you thought you had to do
E|----------------------|
B|---4---------2----0---|
G|---4---------2----1---|
D|---4----4----2----2---|
A|--------4-------------|
E|--------2-------------|
  And your blood's depleted to the point of stable glue
E|----------------------|
B|---4---------2----0---|
G|---4---------2----1---|
D|---4----4----2----2---|
A|--------4-------------|
E|--------2-------------|


  Then you'll get along
E|----------------------|
B|---4---------2----0---|
G|---4---------2----1---|
D|---4----4----2----2---|
A|--------4-------------|
E|--------2-------------|
  Then you'll get along
E|----------------------|
B|---4---------2----0---|
G|---4---------2----1---|
D|---4----4----2----2---|
A|--------4-------------|
E|--------2-------------|

E|-----------------|
B|-----------------|
G|-7~--7~--6~--4~--|
D|-----------------|
A|-----------------|
E|-----------------|


Steady as she goes (steady as she goes) 
E|----------------------------------|
B|----------------------------------|
G|---4-4-4-----------2-2-2----------|
D|---4-4-4---4-4-4---2-2-2---2-2-2--|
A|---2-2-2---4-4-4---0-0-0---2-2-2--|
E|-----------2-2-2-----------0-0-0--|



Steady as she goes (steady as she goes
E|----------------------------------|
B|----------------------------------|
G|---4-4-4-----------2-2-2----------|
D|---4-4-4---4-4-4---2-2-2---2-2-2--|
A|---2-2-2---4-4-4---0-0-0---2-2-2--|
E|-----------2-2-2-----------0-0-0--|

So steady as she goes
E|----------------------------------|
B|----------------------------------|
G|---4-4-4-----------2-2-2----------|
D|---4-4-4---4-4-4---2-2-2---2-2-2--|
A|---2-2-2---4-4-4---0-0-0---2-2-2--|
E|-----------2-2-2-----------0-0-0--|

Well here we go again; you've found yourself a friend that knows you well
E|------------------------------------------------------|
B|------------------------------------------------------|
G|--------------------2-2-2-2-2-2-2-2--4-4-4-4-4-4-4-4--|
D|---5-5-5-5-5-5-5-5--2-2-2-2-2-2-2-2--4-4-4-4-4-4-4-4--|
A|---5-5-5-5-5-5-5-5--0-0-0-0-0-0-0-0--2-2-2-2-2-2-2-2--|
E|---3-3-3-3-3-3-3-3------------------------------------|

But no matter what you do, you'll always feel as though you tripped and fell
E|------------------------------------------------------|
B|------------------------------------------------------|
G|--------------------2-2-2-2-2-2-2-2-------------------|
D|---5-5-5-5-5-5-5-5--2-2-2-2-2-2-2-2--2-2-2-2-2-2-2-2--|
A|---5-5-5-5-5-5-5-5--0-0-0-0-0-0-0-0--2-2-2-2-2-2-2-2--|
E|---3-3-3-3-3-3-3-3-------------------0-0-0-0-0-0-0-0--|

    So steady as she goes
E|----------------------|
B|---4---------2----0---|
G|---4---------2----1---|
D|---4----4----2----2---|
A|--------4-------------|
E|--------2-------------|

    Steady as she goes
E|----------------------|
B|---4---------2----0---|
G|---4---------2----1---|
D|---4----4----2----2---|
A|--------4-------------|
E|--------2-------------|

Settle for a world neither up or down 
E|----------------------|
B|---4---------2----0---|
G|---4---------2----1---|
D|---4----4----2----2---|
A|--------4-------------|
E|--------2-------------|

 Sell it to the crowd that's gathered round
E|----------------------|
B|---4---------2----0---|
G|---4---------2----1---|
D|---4----4----2----2---|
A|--------4-------------|
E|--------2-------------|

  Settle for a world neither up or down 
E|----------------------|
B|---4---------2----0---|
G|---4---------2----1---|
D|---4----4----2----2---|
A|--------4-------------|
E|--------2-------------|
  
 





Sell it to the crowd that's gathered round
E|----------------------|
B|---4---------2----0---|
G|---4---------2----1---|
D|---4----4----2----2---|
A|--------4-------------|
E|--------2-------------|

E|-----------------|
B|-----------------|
G|-7~--7~--6~--4~--|
D|-----------------|
A|-----------------|
E|-----------------|

E|-----------------|
B|-----------------|
G|-7~--7~--6~--4~--|
D|-----------------|
A|-----------------|
E|-----------------|

Steady as she goes (steady as she goes) 
E|----------------------------------|
B|----------------------------------|
G|---4-4-4-----------2-2-2----------|
D|---4-4-4---4-4-4---2-2-2---2-2-2--|
A|---2-2-2---4-4-4---0-0-0---2-2-2--|
E|-----------2-2-2-----------0-0-0--|

Steady as she goes (steady as she goes) 
E|----------------------------------|
B|----------------------------------|
G|---4-4-4-----------2-2-2----------|
D|---4-4-4---4-4-4---2-2-2---2-2-2--|
A|---2-2-2---4-4-4---0-0-0---2-2-2--|
E|-----------2-2-2-----------0-0-0--|

Steady as she goes (steady as she goes) 
E|----------------------------------|
B|----------------------------------|
G|---4-4-4-----------2-2-2----------|
D|---4-4-4---4-4-4---2-2-2---2-2-2--|
A|---2-2-2---4-4-4---0-0-0---2-2-2--|
E|-----------2-2-2-----------0-0-0--|

Steady as she goes (steady as she goes) 
E|----------------------------------|
B|----------------------------------|
G|---4-4-4-----------2-2-2----------|
D|---4-4-4---4-4-4---2-2-2---2-2-2--|
A|---2-2-2---4-4-4---0-0-0---2-2-2--|
E|-----------2-2-2-----------0-0-0--|



Steady as she goes (steady as she goes) 
E|----------------------------------|
B|----------------------------------|
G|---4-4-4-----------2-2-2----------|
D|---4-4-4---4-4-4---2-2-2---2-2-2--|
A|---2-2-2---4-4-4---0-0-0---2-2-2--|
E|-----------2-2-2-----------0-0-0--|

Steady as she goes   Are you steady now?
E|----------------------------------|
B|----------------------------------|
G|---4-4-4-----------2-2-2----------|
D|---4-4-4---4-4-4---2-2-2---2-2-2--|
A|---2-2-2---4-4-4---0-0-0---2-2-2--|
E|-----------2-2-2-----------0-0-0--|

Steady as she goes   Are you steady now?
E|----------------------------------|
B|----------------------------------|
G|---4-4-4-----------2-2-2----------|
D|---4-4-4---4-4-4---2-2-2---2-2-2--|
A|---2-2-2---4-4-4---0-0-0---2-2-2--|
E|-----------2-2-2-----------0-0-0--|

Steady as she goes   Are you steady now?
E|----------------------------------|
B|----------------------------------|
G|---4-4-4-----------2-2-2----------|
D|---4-4-4---4-4-4---2-2-2---2-2-2--|
A|---2-2-2---4-4-4---0-0-0---2-2-2--|
E|-----------2-2-2-----------0-0-0--|

Steady as she goes   Are you steady now?
E|----------------------------------|
B|----------------------------------|
G|---4-4-4-----------2-2-2----------|
D|---4-4-4---4-4-4---2-2-2---2-2-2--|
A|---2-2-2---4-4-4---0-0-0---2-2-2--|
E|-----------2-2-2-----------0-0-0--|
            
Hard to play? Try these video lessons and learn fast. | Correct




comments powered by Disqus
↑ Back to top | Tablatures and chords are parodies/interpretations of the original songs. You may use it for private study, scholarship, research or language learning purposes only