» » »

Salute Your Solution Bass tabs (ver.1)

Artists:  A B C D E F G H I J K L M N O P Q R S T U V W X Y Z # 

Salute Your Solution Bass tabs (ver.1)

The Raconteurs
Rating:
0/5 (0 votes)

Tabs too difficult? Try these video lessons and learn fast.
                begin


intro (verse 0):
G-------------------|
D-------------------|
A-7-7--5------------|
E--------(3)--5-7-7-|  (the D# (3) could be muted, if you want, i think it sounds good unmuted

Bass solo and keep playing this while jack sings(verse 1):
-----------------|
-----------------|
---------(2)-5-5-|   This B (2) could be played as a mute
0-0--3-5---------|

Then an octave higher when guitar comes in(verse 2):
---------------------|
-----------(9)-12-12-| Again, this B (9) could be muted
7-7--10-12-----------|
---------------------|


then verse 0

then verse 1

then verse 2


then this when guitar kinda solos:

------------------------------------------------|
---------------9/----------------------------9/-|  (/means slide down)
7~~~~~~~~~~~~~~~~~~~~~~~~~~~~7~~~~~~~~~~~~~~~~~~  (~means Hold)
------------------------------------------------


then break when guitar starts


Then This (it might only be guitarro, im not sure):
--------------------------10-(12----|
----------------10--10-12-------12--|
------10--10-12---------------------|
10-12-------------------------------|

10-12------------------------------|
------12--10-12--------------------|
----------------12--10-12----------|
--------------------------13--10---|

then verse 0

then verse 2


then end on:

------------------|
------------------|
7~~~~~~~~~~~~~~~~~  I think it's the high E but you could play both
(0~~~~~~~~~~~~~~~)

i dont know if this is guitar or bass but the last thing is:

-------------|
-------------|
12-10----10^-|  (^ means bend the string a little, if you want)
------12-----|


Thats it, thank you(s) Jack, Brendan,Bass Jack and Patrick  for making this song, i hope
helped and was correct.I probably made up a bunch of the stuff that maybe only guitar
but this was my first tab so enjoy!

Love,
Me
4 fingers, 4 strings (thumbs arent used in this song if yu prefer or use your thumb and 
a 5 string)
            
Tabs too difficult? Try these video lessons and learn fast.


comments powered by Disqus
↑ Back to top | Tablatures and chords are parodies/interpretations of the original songs. You may use it for private study, scholarship, research or language learning purposes only