>
 >
Salute Your Solution 2

Salute Your Solution 2 Guitar Tabs

The Raconteurs - Salute Your Solution 2 chords, tabs, tablatures, lyrics

Guitar lessons | Add/correct | Request | Top 50 tabs Artists:  A B C D E F G H I J K L M N O P Q R S T U V W X Y Z 0-9

Salute Your Solution 2 Guitar Tabs – The Raconteurs

CD, Sheet music, Poster

Do you like Salute Your Solution 2? Share with your friends now
Bass TabsBass Tabs v2ChordsTabsTabs v2Tabs v3Tabs v4Tabs v5Ukulele
Salute Your Solution                               


                                                                  The Raconteurs
Alexis



                     NH                                                 
     H        Q      Q       Q    Q    Q    Q       Q    Q    H         
E||-----------------------|----------------------|---------------------|
B||-----------------------|----------------------|---------------------|
G||-----------------------|----------------------|---------------------|
D||------------------x----|-------x----x----x----|--x----x-------------|
A||------------------x----|-------x----x----x----|--x----x-------------|
E||----------------<>7----|-------x----x----x----|--x----x-------------|


  W                     Q    Q    Q    E  E     E  E  E  E  Q    Q     3x
-------------------||---0----0---------------|-------------------------||
-------------------||---0----0------------3--|--x--2--x--4--4----4-----||
-------------------||*--1----1------------2--|--x--2--x--4--4----4----*||
-------------------||*--2----2------------0--|--x--2--x--4--4----4----*||
-------------------||---2----2------------0--|--x--0--x--2--2----2-----||
-------------------||---0----0---------------|-------------------------||


  Q    Q    H                                               Q    Q    H         
--0----0-------------|-----------|-----------|-----------|--0----0-------------|
--0----0-------------|-----------|-----------|-----------|--0----0-------------|
--1----1-------------|-----------|-----------|-----------|--1----1-------------|
--2----2-------------|-----------|-----------|-----------|--2----2-------------|
--2----2-------------|-----------|-----------|-----------|--2----2-------------|
--0----0-------------|-----------|-----------|-----------|--0----0-------------|


-----------|-----------|-----------|-----------|-----------|-----------|
-----------|-----------|-----------|-----------|-----------|-----------|
-----------|-----------|-----------|-----------|-----------|-----------|
-----------|-----------|-----------|-----------|-----------|-----------|
-----------|-----------|-----------|-----------|-----------|-----------|
-----------|-----------|-----------|-----------|-----------|-----------|


  Q    Q    H           H        Q    Q       Q    Q    H         
--0----0-------------|---------------------|--0----0-------------|
--0----0-------------|-----------3----3----|--0----0-------------|
--1----1-------------|-----------2----2----|--1----1-------------|
--2----2-------------|-----------0----0----|--2----2-------------|
--2----2-------------|-----------0----0----|--2----2-------------|
--0----0-------------|---------------------|--0----0-------------|


  H        Q    Q       Q    Q    H           H        Q    Q     
---------------------|--0----0-------------|---------------------|
-----------3----3----|--0----0-------------|-----------3----3----|
-----------2----2----|--1----1-------------|-----------2----2----|
-----------0----0----|--2----2-------------|-----------0----0----|
-----------0----0----|--2----2-------------|-----------0----0----|
---------------------|--0----0-------------|---------------------|


  Q    Q    H           H        Q    Q         Q    Q    Q    E  E   
--0----0-------------|---------------------||---0----0---------------|
--0----0-------------|-----------3----3----||---0----0------------3--|
--1----1-------------|-----------2----2----||*--1----1------------2--|
--2----2-------------|-----------0----0----||*--2----2------------0--|
--2----2-------------|-----------0----0----||---2----2------------0--|
--0----0-------------|---------------------||---0----0---------------|


  E  E  E  E  Q    Q     4x  Q    Q    H                                 
-------------------------||--0----0-------------|-----------|-----------|
--x--2--x--4--4----4-----||--0----0-------------|-----------|-----------|
--x--2--x--4--4----4----*||--1----1-------------|-----------|-----------|
--x--2--x--4--4----4----*||--2----2-------------|-----------|-----------|
--x--0--x--2--2----2-----||--2----2-------------|-----------|-----------|
-------------------------||--0----0-------------|-----------|-----------|


                                                  Q    Q    H         
-----------|-----------|-----------|-----------|--0----0-------------|
-----------|-----------|-----------|-----------|--0----0-------------|
-----------|-----------|-----------|-----------|--1----1-------------|
-----------|-----------|-----------|-----------|--2----2-------------|
-----------|-----------|-----------|-----------|--2----2-------------|
-----------|-----------|-----------|-----------|--0----0-------------|


  H        Q    Q       Q    Q    H           H        Q    Q     
---------------------|--0----0-------------|---------------------|
-----------3----3----|--0----0-------------|-----------3----3----|
-----------2----2----|--1----1-------------|-----------2----2----|
-----------0----0----|--2----2-------------|-----------0----0----|
-----------0----0----|--2----2-------------|-----------0----0----|
---------------------|--0----0-------------|---------------------|


  Q    Q    H           H        Q    Q       Q    Q    H         
--0----0-------------|---------------------|--0----0-------------|
--0----0-------------|-----------3----3----|--0----0-------------|
--1----1-------------|-----------2----2----|--1----1-------------|
--2----2-------------|-----------0----0----|--2----2-------------|
--2----2-------------|-----------0----0----|--2----2-------------|
--0----0-------------|---------------------|--0----0-------------|


  H        Q    Q       W                   W                 
---------------------|--0----------------|--L----------------|
-----------3----3----|--0----------------|--L----------------|
-----------2----2----|--4----------------|--L----------------|
-----------0----0----|--2----------------|--L----------------|
-----------0----0----|--2----------------|--L----------------|
---------------------|--0----------------|--L----------------|


  W                   W                   W                   W                 
--L----------------|--L----------------|--0----------------|--L----------------|
--L----------------|--L----------------|--0----------------|--L----------------|
--L----------------|--L----------------|--4----------------|--L----------------|
--L----------------|--L----------------|--2----------------|--L----------------|
--L----------------|--L----------------|--2----------------|--L----------------|
--L----------------|--L----------------|--0----------------|--L----------------|


  W                   W                   W                   W                 
--L----------------|--L----------------|--0----------------|--L----------------|
--L----------------|--L----------------|--0----------------|--L----------------|
--L----------------|--L----------------|--4----------------|--L----------------|
--L----------------|--L----------------|--2----------------|--L----------------|
--L----------------|--L----------------|--2----------------|--L----------------|
--L----------------|--L----------------|--0----------------|--L----------------|


  W                   W                   W                   W                 
--L----------------|--L----------------|--0----------------|--L----------------|
--L----------------|--L----------------|--0----------------|--L----------------|
--L----------------|--L----------------|--4----------------|--L----------------|
--L----------------|--L----------------|--2----------------|--L----------------|
--L----------------|--L----------------|--2----------------|--L----------------|
--L----------------|--L----------------|--0----------------|--L----------------|


  W                   W                   W                   W                 
--L----------------|--L----------------|-------------------|-------------------|
--L----------------|--L----------------|-------------------|-------------------|
--L----------------|--L----------------|-------------------|-------------------|
--L----------------|--L----------------|-------------------|-------------------|
--L----------------|--L----------------|-------------------|-------------------|
--L----------------|--L----------------|-------------------|-------------------|


  W                   W                   H        E  E  E  E   
-------------------|-------------------|-----------------------|
-------------------|-------------------|-----------------------|
-------------------|-------------------|-----------------------|
-------------------|-------------------|-----------------------|
-------------------|-------------------|-----------------------|
-------------------|-------------------|--------------0--3--5--|


    E  E  E  E  E  E  E  E      E  E  Q    E  E   E  E   
|----------------------------|--------------------------|
|----------------------------|--------------------------|
|*---------------------------|--------------------------|
|*-----------------------5h--|--6-------------5h--6-----|
|------------5-----5--7------|-----7--L--------------7--|
|------5--7------------------|--------------------------|


  E  E  E  E  E  E  E  E      E  E  Q    E  E  E  E     
---------------------------|--------------------------||
---------------------------|--------------------------||
---------------------------|-------------------------*||
---------------------------|-------------------------*||
-----5--7------------------|--------------------------||
-----------7-----5--7--3b--|--L--0--L-------0--3--5---||


  E  E  E  E  E  E  E  E      E  E  Q    E  E   E  E   
---------------------------|--------------------------|
---------------------------|--------------------------|
---------------------------|--------------------------|
-----------------------5h--|--6-------------5h--6-----|
-----------5-----5--7------|-----7--L--------------7--|
-----5--7------------------|--------------------------|


  E  E  E  E  E  E  E  E     E   E   T   T   S  E   E   E   T   T   S  E   
--------------------------|-----15--12h-15p-12-----12--15--12h-15p-12-----|
--------------------------|--------------------15----------------------x--|
--------------------------|--------------------------------------------x--|
--------------------------|-----------------------------------------------|
-----5--7-----------------|-----------------------------------------------|
-----------7-----5--7--3--|-----------------------------------------------|


   E.   E.   E   H           S  E.   H        S  E.    
---x----------------------|---------------------------|
---x----x-----------------|---------------------17\---|
--------x----x/--L--------|----16\---L--------L-------|
-------------x/--L--------|---------------------------|
-------------x/--L--------|---------------------------|
--------------------------|---------------------------|


  Q     E   E   E   E   Q        E   E   E   E   E   S   S  E   E   
-------16--16--15--15--------|------------------12--15p-12---------|
--L--------------------17----|----------12--15--------------x---x--|
-----------------------------|------14----------------------x---x--|
-----------------------------|---x--------------------------x---x--|
-----------------------------|---x---------------------------------|
-----------------------------|-------------------------------------|


   E   E   E   E   E   Q.          Q.      E   E   E   E   E   
--------------15---------------|--16------16---L--------------|
---x---x---x-------x-----------|----------15b--L--15--12--15--|
---x---x---x-------x--14b------|------------------------------|
---x---x---x-------x-----------|------------------------------|
-------------------------------|------------------------------|
-------------------------------|------------------------------|


   T   T   S  E   E   E   E   E   Q       W                   W                 
-----------------12--------------------|-------------------|-------------------|
--12h-15p-12-15------15--12--15b--L----|-------------------|-------------------|
---------------------------------------|-------------------|-------------------|
---------------------------------------|-------------------|-------------------|
---------------------------------------|-------------------|-------------------|
---------------------------------------|-------------------|-------------------|


  Q    H.               E  E  T  T  S E  Q       E.   S   
-------3b------------|--L--3--0h-3p-0--------------------|
---------------------|----------------0------------------|
---------------------|-------------------2pbr----L---(0)-|
---------------------|-----------------------------------|
---------------------|-----------------------------------|
---------------------|-----------------------------------|


  Q    Q.     E  T  T  S E     Q.      E  E  E  T  T  S E   
--------------3--0h-3p-0----|----------------3--0h-3p-0----|
----------------------------|------------------------------|
-------------------------2--|--0b-----------------------2--|
--2-------------------------|------------------------------|
----------------------------|------------------------------|
----------------------------|------------------------------|


                                        tr             
  E   E  E  E  H           E  E   E  E  Q       E  E   
------------------------|-----2b-----0----------------|
------------------------|---------------3(5)----------|
--0h--1-----------------|-----------------------0-----|
---------2--------------|--------------------------2--|
------------------------|-----------------------------|
------------------------|-----------------------------|


   H           E   E    E    E      Q     E   E  S S S S S S S S  
--------------------------------|--------------------------------|
--16pbr--------L--13h--16p--13--|--------------------------------|
--------------------------------|--14\----7S--5--L-7-7-7-7-9-9-9-|
--------------------------------|--------------------------------|
--------------------------------|--------------------------------|
--------------------------------|--------------------------------|


  Q     E   E   S   S   S   S  E   E      E    E     E   E   Q      Q      
--------------------------------------|-----------------------------------|
--------------------------------------|-----------------------------------|
--9b----L--12--12h-14p-12p-10-12--14--|--14b--14pb--12--14--14b----14b----|
--------------------------------------|-----------------------------------|
--------------------------------------|-----------------------------------|
--------------------------------------|-----------------------------------|


  E  E  E  E  E  E  E  E     E  E  E  E  E  E  Q     
--------------------------|-------------------------|
--------------------------|-----------0--3--3--3----|
-----0--2--2--4--0--4--4--|-------------------------|
--------------------------|--2--0--2----------------|
--------------------------|-------------------------|
--------------------------|-------------------------|


  S  S E  E  E  S S  E  E  S  S    E  E  E  E  Q    Q     
--------------------------------|------------------------|
--------------------------------|-----------0--3----3----|
--2h-4------------0h-4----------|------------------------|
----------0--2--2-------2--0h-2-|------------------------|
-------2------------------------|-----2--L---------------|
--------------------------------|------------------------|


  E   E    E   E   Q      Q        E   E    E    E   Q      Q      
--------------------------------|---------------------------------|
------------------15b----15b----|-----12h--15p--12----------------|
-----14b--12--------------------|-------------------14b----14b----|
--------------14----------------|---------------------------------|
--------------------------------|---------------------------------|
--------------------------------|---------------------------------|


  E   E    E     E     E    E     E    E     
--------------------------------------------|
--------------------------------------------|
-----14b--14pb--14pb--14b--14pb--14b--14pb--|
--------------------------------------------|
--------------------------------------------|
--------------------------------------------|


   E    E     E     E     Q      Q       
---------------------------------------||
---------------------------------------||
--14b--14pb--14pb--14pb--14b----14b----||
---------------------------------------||
---------------------------------------||
---------------------------------------||




Duration Legend
---------------
W - whole
H - half
Q - quarter
E - 8th
S - 16th
T - 32nd
X - 64th
. - note dotted
|-n-|  - n-tuplets


Tablature Legend
----------------
L - tied note
x - dead note
g - grace note
(n) - ghost note
> - accentuded note
NH - natural harmonic
AH - artificial harmonic
TH - tapped harmonic
SH - semi harmonic
PH - pitch harmonic
h - hammer on
p - pull off
b - bend
br - bendRelease
pb - preBend
pbr - preBendRelease
brb - bendReleaseBend
\n/ - tremolo bar dip
\n - tremolo bar dive
-/n - tremolo bar Release up
/n\ - tremolo bar inverted dip
/n - tremolo bar return
-\n - tremolo bar Release down
S - shift slide
s - legato slide
/ -  slide into from below or out of upwards
\ -  slide into from above or out of downwards
~ - vibrato
W - wide vibrato
tr - trill
TP - tremolo picking
T - tapping
S - slap
P - pop
< - fade in
^ - brush up
v - brush down





Comments


Popular The Raconteurs tabs & chords
Blue Veins Bass Tabs
Steady As She Goes 4 Bass Tabs
The Switch And The Spur Bass Tabs
Level Chords
Consolers Of The Lonely 1 Tabs
Five On The Five Tabs
Level 1 Tabs
Top Yourself Tabs
Steady As She Goes Ukulele
You Dont Understand Me Ukulele


Song lyrics



↑ Back to top | Tablatures and chords are parodies/interpretations of the original songs. You may use it for private study, scholarship, research or language learning purposes only
© 2014 AZChords.com Contact us | Privacy policy | DMCA | Add/correct tabs | Request tabs | Top 50 tabs