>
 >
Salute Your Salution

Salute Your Salution Bass Tabs

The Raconteurs - Salute Your Salution chords, tabs, tablatures, lyrics

Guitar lessons | Add/correct | Request | Top 50 tabs Artists:  A B C D E F G H I J K L M N O P Q R S T U V W X Y Z 0-9

Salute Your Salution Bass Tabs – The Raconteurs

CD, Sheet music, Poster

Do you like Salute Your Salution? Share with your friends now
Bass TabsBass Tabs v2

Tuning: standard
        EADG


this song isn't too hard, but its a lot easier 
if you memorise each 'section' before 
trying to play it as a whole song.
one thing that makes it 
easier that - except for 
the bridge - the song follows 
the same rhythm, 
check the song for the timing 

-Salute Your Salution

00:07  
Intro/Chorus: (after 2 bars of guitar) x4
G|-------------------------------|
D|--2--2----0--------------------|   
A|-------------0--2-2-2----------|
E|-------------------------------|

on 4th time finish on the open E that starts the verse

00:19
Verse: (part 1)                        x6
G|------------------------------------|
D|------------------------------------|
A|------------------------------------|
E|--0--0----3--5--7--10--10-----------|

00:36
Verse: (part 2)                        x4
G|------------------------------------|
D|------------------9--12--12---------|
A|--7--7----10--12--------------------|
E|------------------------------------|

00:47
CHORUS          x4
VERSE (part 1)  x4
VERSE (part 2)  x4

01:22
Bridge                    x4          
G|-----------------------------|        the timing for this bit is
D|-----------------9\----------|        tricky, check the song.
A|---7-------------------------|
E|-----------------------------|

on the fourth time finish on the 7 (a string)

01:45
next riff thing:                                          x4
G|----------------------------------------|--------------------------------------|
D|----------------------------------------|--------------------------------------|
A|-------------------------------10h11----|---10-11------------------------------|
E|--0--3--5---5--7--10---10--12--------12-|---------12---10--12--7---5--7--3--0--|

02:09
CHORUS x10

02:37
Outro: (variation of the chorus)   x4       
G|----------0--2--4--7--7------------------|
D|--2--2-----------------------------------|
A|-----------------------------------------|
E|-----------------------------------------|

02:48
finish on
-----|
--2--|
-----|
-----|





Comments


Popular The Raconteurs tabs & chords
The Switch And The Spur Bass Tabs
Salute Your Solution Chords
Together Chords
Consolers Of The Lonely 1 Tabs
Consolers Of The Lonely 5 Tabs
Intimate Secretary Tabs
Salute Your Solution Tabs
Hands Ukulele
Many Shades Of Black Ukulele
Yellow Sun Ukulele


Song lyrics



↑ Back to top | Tablatures and chords are parodies/interpretations of the original songs. You may use it for private study, scholarship, research or language learning purposes only
© 2014 AZChords.com Contact us | Privacy policy | DMCA | Add/correct tabs | Request tabs | Top 50 tabs