» » »

Pull This Blanket Off Of Me Tabs (ver.1)

Artists:  A B C D E F G H I J K L M N O P Q R S T U V W X Y Z # 

Pull This Blanket Off Of Me Tabs (ver.1)

The Raconteurs
Rating:
0/5 (0 votes)

Hard to play? Try these video lessons and learn fast.
                -------------------------------------------------------------------------------
-------------------------------------------------------------------------------

Easy song featuring only Brendan Benson on guitar. Use distortion, but not a lot.

Tuning: Standard EADGBe

Intro:

e|----x-10-10-10-12-10----10---|
B|-13-x-10-10-10-10-10-10-10---|
G|----x-11-11-11-11-11-11------|
D|-----------------------------|
A|-----------------------------|
E|-----------------------------|

Verse 1:

   G               C               D               G 
   1 + 2 + 3 + 4 + 1 + 2 + 3 + 4 + 1 + 2 + 3 + 4 + 
e|-----------------0---0---0-------------------------------|
B|-3---------------1---1---1-------3---3---3---3-3-3---3---|
G|-0---------------0---0---0---0-0-2---2---2---2-2-0---0---|
D|-0---------------2---2---2---2-2-0---0---0---0-0-0---0---|
A|-x---------------3---3---3---3-3-----------------x---x---|
E|-3-----------------------------------------------3---3---|

Riff 1:

e|-----------------|
B|-3-----------3---|
G|-2b4r2p0---------|
D|---------0h2-----|
A|-----------------|
E|-----------------|

Verse 2:

   G               C               D               G   
   1 + 2 + 3 + 4 + 1 + 2 + 3 + 4 + 1 + 2 + 3 + 4 +   
e|-----------------0---0-0-0---0-0-------------------------|
B|-3---3---3---3-3-1---1-1-1---1-1-3---3---3---3---3---3---|
G|-0---0---0---0-0-0---0-0-0---0-0-2---2---2---2---0---0---|
D|-0---0---0---0-0-2---2-2-2---2-2-0---0---0---0---0---0---|
A|-x---x---x---x-x-3---3-3-3---3-3-----------------x---x---|
E|-3---3---3---3-3---------------------------------3---3---|

Riff 2:

e|-------------------|
B|-3-----------3-----|
G|-2b4r2p0-----------|
D|---------0h2---3---|
A|-------------------|
E|-------------------|

Break:
                             A       D
e|---------------------------------------------|
B|-----3-----5-----1-------3---------3---3-3---|
G|---4-----5-----2---2---3---2---2---2---2-2---|
D|-5-----5-----3-------3-----2---2---0---0-0---|
A|---------------------------0---0-------------|
E|---------------------------------------------|

                             A
e|-----------------------------------|
B|-----3-----5-----1-------3---------|
G|---4-----5-----2---2---3---2---2---|
D|-5-----5-----3-------3-----2---2---|
A|---------------------------0---0---|
E|-----------------------------------|

Riff 3:

e|-------------------|
B|-3-------------3---|
G|-2b4r2p0-------0---|
D|---------0h2h3-----|
A|-------------------|
E|-------------------|

Verse 3:

   G               C               D               G          
   1 + 2 + 3 + 4 + 1 + 2 + 3 + 4 + 1 + 2 + 3 + 4 + 
e|-----------------0---0---0---0---------------------------|
B|-3---3---3---3---1---1---1---1---3---3---3---3---3---3---|
G|-0---0---0---0---0---0---0---0---2---2---2---2---0---0---|
D|-0---0---0---0---2---2---2---2---0---0---0---0---0---0---|
A|-x---x---x---x---3---3---3---3-------------------x---x---|
E|-3---3---3---3-----------------------------------3---3---|

Riff 2:

e|-------------------|
B|-3-----------3-----|
G|-2b4r2p0-----------|
D|---------0h2---3---|
A|-------------------|
E|-------------------|

Verse 4:

   G               C               D               G          
   1 + 2 + 3 + 4 + 1 + 2 + 3 + 4 + 1 + 2 + 3 + 4 + 
e|-----------------0---0---0---0---------------------------|
B|-3---3---3---3---1---1---1---1---3---3---3---3---3---3---|
G|-0---0---0---0---0---0---0---0---2---2---2---2---0---0---|
D|-0---0---0---0---2---2---2---2---0---0---0---0---0---0---|
A|-x---x---x---x---3---3---3---3-------------------x---x---|
E|-3---3---3---3-----------------------------------3---3---|

Riff 4:

e|-------------------|
B|-3-----------3-----|
G|-2b4r2p0-----0-----|
D|---------0h2---0---|
A|-------------------|
E|-------------------|

Break:
                             A       D
e|---------------------------------------------|
B|-----3-----5-----1-------3---------3---3-3---|
G|---4-----5-----2---2---3---2---2---2---2-2---|
D|-5-----5-----3-------3-----2---2---0---0-0---|
A|---------------------------0---0-------------|
E|---------------------------------------------|

                                   A
e|-----------------------------------------|
B|-----3-------5-------1-------3-----------|
G|---4---4---5---5---2---2---3---3-2---2---|
D|-5-------5-------3-------3-------2---2---|
A|---------------------------------0---0---|
E|-----------------------------------------|

Riff 1:

e|-----------------|
B|-3-----------3---|
G|-2b4r2p0---------|
D|---------0h2-----|
A|-----------------|
E|-----------------|

Outro Riff:

e|---------|
B|---------|
G|---------|
D|---------|
A|-1h2-----|
E|-----3---|

Rate and comment! Enjoy!

| /  slide up
| \  slide down
| h  hammer-on
| p  pull-off
| ~  vibrato
| +  harmonic
| x  Mute note
===============================================================================
            
Hard to play? Try these video lessons and learn fast. | Correct




comments powered by Disqus
↑ Back to top | Tablatures and chords are parodies/interpretations of the original songs. You may use it for private study, scholarship, research or language learning purposes only