» » »

Hands Bass tabs (ver.1)

Artists:  A B C D E F G H I J K L M N O P Q R S T U V W X Y Z # 

Hands Bass tabs (ver.1)

The Raconteurs
Rating:
0/5 (0 votes)

Hard to play? Try these video lessons and learn fast.
                Intro/Verse 1 & 2
G---------------------------------------------------------------|
D-----9-11-12---------------------------------------------------|
A-12----------12-9-----------5-7-9-10---------------------------|
E------------------10-5--7-9------------------------------------|

Chorus
G-------------------------------------------------------------------|
D-------------------------------------------------------------------|
A---------------------------------5-5-5-5-5-5-5-5-5-5-5-5-5-5-5-5-5-|
E-1-1-1-1-1-1-1-1-3-3-3-3-3-3-3-3-----------------------------------|


G---------------------------------|
D---------------------------------|
A---------------------------------|
E-1-1-1-1-1-1-1-1-3-3-3-3-3-3-3-3-|

Bridge
G---------------------------------------------------------------|
D---------------------------------------------------------------|
A---------------------------------------------------------------|
E--0-0-0-0-0-0-0-0-0-0-0-0-0-0-0-0------------------------------|



Only Guitar Plays
Come in with:
G---------------------------------------------------------------|
D---------------------------------------------------------------|
A-5-5-5--3-3-3--------------------------------------------------|
E---------------3-3-3--0-0-0------------------------------------|

Closing Riff
G------------------------------------------------------------------------|
D------------------------------------------------------------------------|
A-7-7-7-7-7-7-7-7-7-5-5-5-5-5-5-5-5-5-3-3-3-3-3-3-3-3-3-----------10-9-8-|
E-------------------------------------------------------3-3-3-3-3--------|
            
Hard to play? Try these video lessons and learn fast. | Correct




comments powered by Disqus
↑ Back to top | Tablatures and chords are parodies/interpretations of the original songs. You may use it for private study, scholarship, research or language learning purposes only