>
 >
Consolers Of The Lonely 2

Consolers Of The Lonely 2 Guitar Tabs

The Raconteurs - Consolers Of The Lonely 2 chords, tabs, tablatures, lyrics

Guitar lessons | Add/correct | Request | Top 50 tabs Artists:  A B C D E F G H I J K L M N O P Q R S T U V W X Y Z 0-9

Consolers Of The Lonely 2 Guitar Tabs – The Raconteurs

CD, Sheet music, Poster

Do you like Consolers Of The Lonely 2? Share with your friends now
Bass TabsTabsTabs v2Tabs v3Tabs v4Tabs v5Tabs v6
This is my very first tab put up on a site. I've done songs for personal use before, but 
I should see what other people thought. I'm 14, been playing around 1 1/2 years, and 
this up as soon as I heard the song.

Not 100% correct, but I think it's pretty good. Tell me what you think.

==================================================================================================


e|--------------------x---x----------------------x----------------------------------------------|
B|--------------------x---x----------------------x----------------------------------------------|
G|-----x3---3p2-------x---x--------3p2----------x----------3p2-----------3p2-----------3p2-0---|
D|--------------------x---x--x(3p0)--------3/-5--x----x(3p0)--------x(3p0)--------x(3p0)-------5|
A|--------------------x---x----------------3/-5--x---------------------------------------------5|
E|-x3~--------------3~---------------------1/-3------------------------------------------------3|

(Background noise...)

e|---------------------------------------|
B|---------------------------------------|
G|---------------------------------------|    x2
D|--5---x--x3-5---------5---xx3-5-------|
A|--5---x--x3-5---------3---xx3-5-------|
E|--3---x--x1-3---------3---xx1-3-------|

Where I put that the power chords were slid, there are actually drums on the first 
I like it this way because it just keeps me busy.
e|-------------------------------------------------|
B|-------------------------------------------------|
G|-------------------------------------------------|
D|--10-x8-10---------10-x8-10-----8\7-7\5-------|
A|--10-x8-10---------10-x8-10-----8\7-7\5-------|
E|--8-x6-8-----------8-x6-8------6\5-5\3-------|

e|---------------------------------------|
B|---------------------------------------|
G|---------------------------------------|
D|--5---x--x3-5---------5---xx3-5-------|
A|--5---x--x3-5---------3---xx3-5-------|
E|--3---x--x1-3---------3---xx1-3-------|

e|----------------------------------------|
B|----------------------------------------|
G|--7~~~~~-10~~~~~--7~~~~~-3~~-5~~--------|
D|--7~~~~~-10~~~~~--7~~~~~-3~~-5~~--------|
A|--5~~~~~-8~~~~~~--5~~~~~1~~-3~~--------|
E|----------------------------------------|

Jack White puts his guitar effects to use here. After doing this phrase 2 times he does 
strange riff I have NO idea how to copy (it might even be some other fancy new recording 
:D ). If you can't figure it out either, do the following 3 times:
e|-----------------------------------------------------------------------------------|
B|-----------------------------------------------------------------------------------|
G|------------3p2----------------3p2-------------3p2---------3p2-----------3p2-0-----|
D|-5-5--x(3p0)--------5-5--x(3p0)------5-5--x(3p0)------x(3p0)-------x(3p0)----------|
A|-5-5----------------5-5--------------5-5-------------------------------------------|
E|-3-3----------------3-3--------------3-3-------------------------------------------|

e|--------------------------------------|
B|--------------------------------------|
G|--------------------------------------|
D|--5-5---x3-5---------5---xx3-5-------|
A|--5-5---x3-5---------3---xx3-5-------|
E|--3-3---x1-3---------3---xx1-3-------|


e|------------------------------------------------|
B|------------------------------------------------|
G|------------------------------------------------|
D|--10-x8-10---------10-x8-10----8\77\5--------|
A|--10-x8-10---------10-x8-10----8\77\5--------|
E|--8-x6-8-----------8--x6-8-----6\55\3--------|


e|--------------------------------------|
B|--------------------------------------|
G|--------------------------------------|
D|--5---x--x3-5---------5---xx3-5------|
A|--5---x--x3-5---------3---xx3-5------|
E|--3---x--x1-3---------3---xx1-3------|

e|----------------------------------------|
B|----------------------------------------|
G|--7~~~~~-10~~~~~--7~~~~~-3~~-5~~--------|
D|--7~~~~~-10~~~~~--7~~~~~-3~~-5~~--------|
A|--5~~~~~-8~~~~~~--5~~~~~1~~-3~~--------|
E|----------------------------------------|

(Notes on low E string are bass line translated to guitar. In between
each power chord, there is a quick drum roll.)
e|--------------------------------------------------------------------------------------|
B|--------------------------------------------------------------------------------------|
G|-----------------------------------------------------------------3--3--3--3-----------|
D|-----------------------------------------------------------------3--3--3--3-----------|
A|-----------------------------------------------------------------1--1--1--1-----------|
E|-13333333-13333333-13333333-13333333-13333333-13333333-13333333-----------------------|

Guitar 1
e|--------------------------------------------------------------------------------------|
B|--18h20~-18h20~-18h20~-18h20-18h20---18h2020~-18h2020~-18h2020~--18h20-18h20----------|
G|--------------------------------------------------------------------------------------|
D|--------------------------------------------------------------------------------------|
A|--------------------------------------------------------------------------------------|
E|--------------------------------------------------------------------------------------|

e|---------------------------------------------------------------------------------------------|
B|--18h2020~-18h2020~-18h2020~--18h20-18h20---18h2018h20~-18h2018h20~-18h2018h20~-18h20-18h20--|
G|---------------------------------------------------------------------------------------------|
D|---------------------------------------------------------------------------------------------|
A|---------------------------------------------------------------------------------------------|
E|---------------------------------------------------------------------------------------------|

e|-----------------------------------------------------------------|
B|--18h2018h20~-18h2018h20~-18h2018h20~-18h20-18h20-18h20-18h20----|
G|-----------------------------------------------------------------|
D|-----------------------------------------------------------------|
A|-----------------------------------------------------------------|
E|-----------------------------------------------------------------|

Guitar 2 (enters on Guitar 1s fourth hammer on)
e|---------------|
B|---------------|
G|---3---3-------|
D|---3---3-------|
A|---1---1-------|
E|---------------|

e|--------------------------------------------|
B|--------------------------------------------|
G|---------------------3---3------------------|   x2
D|--3/5--3/5--3/5----3---3------------------|
A|--3/5--3/5--3/5----1---1------------------|
E|--1/3--1/3--1/3---------------------------|

(2nd round addition: Notes on low E string are transcribed from bass.)
e|----------------------------------------------------------------------------------------|
B|----------------------------------------------------------------------------------------|
G|-----------------------------3---3--x2(2nd-time,add:)--3---3----------------------------|
D|--3/5\3/53/5\3/5--3/5\3/5---3---3---------------------3---3----------------------------|
A|--3/5\3/53/5\3/5--3/5\3/5---1---1---------------------1---1----------------------------|
E|--1/3\1/31/3\1/3--1/3\1/3-----------------------------------133333331333333313333333---|

Guitar 1
e|------18~-------18~-------18~--------18~----------------|
B|--2020-----2020-----2020------2020----------18h20-------|
G|--------------------------------------------------------|
D|--------------------------------------------------------|
A|--------------------------------------------------------|
E|--------------------------------------------------------|

Guitar 2
e|-------------------------------|
B|-------------------------------|
G|---3--3--3--3------------------|
D|---3--3--3--3-----3/5----------|
A|---1--1--1--1-----3/5----------|
E|------------------1/3----------|

Guitar 1 repeats intro and fades





Comments


Popular The Raconteurs tabs & chords
Level Bass Tabs
The Switch And The Spur Chords
Hands 1 Tabs
Pull This Blanket Off Tabs
Steady As She Goes Tabs
Top Yourself 1 Tabs
Call It A Day Ukulele
Carolina Drama Ukulele
Level Ukulele
Steady As She Goes Ukulele


Song lyrics



↑ Back to top | Tablatures and chords are parodies/interpretations of the original songs. You may use it for private study, scholarship, research or language learning purposes only
© 2014 AZChords.com Contact us | Privacy policy | DMCA | Add/correct tabs | Request tabs | Top 50 tabs