>
 >
Consolers Of The Lonely 1

Consolers Of The Lonely 1 Guitar Tabs

The Raconteurs - Consolers Of The Lonely 1 chords, tabs, tablatures, lyrics

Guitar lessons | Add/correct | Request | Top 50 tabs Artists:  A B C D E F G H I J K L M N O P Q R S T U V W X Y Z 0-9

Consolers Of The Lonely 1 Guitar Tabs – The Raconteurs

CD, Sheet music, Poster

Do you like Consolers Of The Lonely 1? Share with your friends now
Bass TabsTabsTabs v2Tabs v3Tabs v4Tabs v5Tabs v6
-------------------------------------------------------------------------------
The Raconteurs- Consoler of the Lonely
-------------------------------------------------------------------------------

There's some random talking at the beginning.
This is my first tab, by the way (although I'm pretty sure every thing's fine).

Tuning: Standard

E A D G B e
F5 1 3 3 x x x
G5 3 5 5 x x x
Bb5 x 1 3 3 x x
C5 x 3 5 5 x x
D5 x 5 7 7 x x
F5* x 8 1010x x

(This part is palm-muted, except for those marked by an *)
G5 G5 F5 G5
e|----------------------------------------------------------------------|
B|----------------------------------------------------------------------|
G|----------------------------------------------------------------------|
D|----(5)-----8*-7*-5*------(5)--------5-8*-7*-----3/5-(5)-------5-8*-7*|
A|--5-(5)-----------------5-(5)----5-8-------------3/5-(5)----5-8-------|
E|--3---------------------3------------------------1/3------------------|

G5
e|----------------------------------------------------------------------|
B|----------------------------------------------------------------------|
G|----------------------------------------------------------------------|
D|------5-8*-7*-------5-8*-7*-5*-------5--------------------------------|
A|--5-8---------5-8--------------------5--------------------------------|
E|-------------------------------------3--------------------------------|

Then a drum fill


Verse:
G5 G5 F5 G5 G5 G5 F5 G5
e|-----------------------|-----------------------|
B|-----------------------|-----------------------|
D|-----------------------|-----------------------| x2 (only for the
G|--5~--5-3-5~-----------|--5~--5-3-5~-----------| first verse)
A|--5~--5-3-5~-----------|--5~--5-3-5~-----------|
E|--3~--3-1-3~-----------|--3~--3-1-3~-----------|

C5 C5 Bb5 C5 G5 G5 F5 G5 G5Bb5Bb5F5
e|-----------------------|-----------------------|
B|-----------------------|-----------------------|
G|--5~--5-3-5~------5b---|--5~--5-3-5~---5-3-3---|
D|--5~--5-3-5~-----------|--5~--5-3-5~---5-3-3-3-|
A|--3~--3-1-3~-----------|--3~--3-1-3~---3-1-1-3-|
E|-----------------------|---------------------1-|

G5 G5 F5 G5 G5 G5 F5 G5
e|-----------------------|-----------------------|
B|-----------------------|-----------------------|
D|-----------------------|-----------------------|
G|--5~--5-3-5------------|--5~--5-3-5------------|
A|--5~--5-3-5------------|--5~--5-3-5------------|
E|--3~--3-1-3------------|--3~--3-1-3------------|

D5 F5* D5 F5
e|-----------------------|-----------------------|
B|-----------------------|-----------------------|
G|--7~------10~----------|--7~-------------------|
D|--7~------10~----------|--7~------3~--5~-------|
A|--5~------8~-----------|--5~------1~--5~-------|
E|-----------------------|----------1~--3~-------|


Chorus (?):

G5 G5 PM G5 G5 PM PM
e|-----------------------|-----------------------|-----------------------|
B|-----------------------|-----------------------|-----------------------|
G|-----------------------|-----------------------|-----------------------|
D|--5~-5--------5-8*-7*--|--5~-5--------5-8*-7*--|--5~-5--------5-8*-7*--|
A|--5~-5----5-8----------|--5~-5----5-8----------|--5~-5----5-8----------|
E|--3~-3-----------------|--3~-3-----------------|--3~-3-----------------|
PM PM PM
e|--------------------------------------|
B|--------------------------------------|
G|--------------------------------------| x2
D|------5-8*-7*-------5-8*-7*-5*--------|
A|--5-8-----------5-8-------------------|
E|--------------------------------------|


Verse:
G5 G5 F5 G5 G5 G5 F5 G5
e|-----------------------|-----------------------|
B|-----------------------|-----------------------|
D|-----------------------|-----------------------| x2 (only for the
G|--5~--5-3-5~-----------|--5~--5-3-5~-----------| first verse)
A|--5~--5-3-5~-----------|--5~--5-3-5~-----------|
E|--3~--3-1-3~-----------|--3~--3-1-3~-----------|

C5 C5 Bb5 C5 C5 C5 Bb5 C5 G5 Bb5 Bb5 F5
e|-----------------------|-----------------------|
B|-----------------------|-----------------------|
G|--5~--5-3-5~------5b---|--5~--5-3-5~---5-3-----|
D|--5~--5-3-5~-----------|--5~--5-3-5~---5-3-5-3-|
A|--3~--3-1-3~-----------|--3~--3-1-3~---3-1-5-3-|
E|-----------------------|-------------------3-1-|
G5 G5 F5 G5 G5 G5 F5 G5
e|-----------------------|-----------------------|
B|-----------------------|-----------------------|
D|-----------------------|-----------------------|
G|--5~--5-3-5------------|--5~--5-3-5------------|
A|--5~--5-3-5------------|--5~--5-3-5------------|
E|--3~--3-1-3------------|--3~--3-1-3------------|
D5 F5* D5 Bb5 C5
e|-----------------------|-----------------------|
B|-----------------------|-----------------------|
G|--7~------10~----------|--7~------3---5--------|
D|--7~------10~----------|--7~------3~--5~-------|
A|--5~------8~-----------|--5~------1~--3~-------|
E|-----------------------|-----------------------|


Outro:

First there is a bass riff (F to G a lot, which is the 1st to 3rd fret on the low E 
on bass)
Then Brendan's all ahhhhhhhhhhhhhhhhhhhhhhhhhhhh
Then there is a drum line

Lead Guitar (Jack White)
Bb5 (x4 with the drums)
e|-----------------------|-13-15--13-15--13-15---|-13-15-18--13-15-18----|
B|-----------------------|-----------------------|-----------------------|
G|-----------------------|-----------------------|-----------------------|
D|-----------------------|-----------------------|-----------------------|
A|-----------------------|-----------------------|-----------------------|
E|-----------------------|-----------------------|-----------------------|
F5 G5 F5 G5 F5 G5 Bb5 Bb5
e|-13-15--13-15--13-15---|-13-15-18--13-15-18----|
B|-----------------------|-----------------------|
G|-----------------------|-----------------------|
D|-----------------------|-----------------------|
A|-----------------------|-----------------------|
E|-----------------------|-----------------------|
F5 G5 F5 G5 F5 G5 F5 G5 Bb5 F5 G5 Bb5
e|-13-15--13-15--13-15---|-13-15-18--13-15-18--------------------------------------------|
B|-----------------------|---------------------------------------------------------------|
G|-----------------------|---------------------------------------------------------------|
D|-----------------------|---------------------------------------------------------------|
A|-----------------------|---------------------------------------------------------------|
E|-----------------------|---------------------------------------------------------------|
F5 G5 F5 G5 F5 G5 Bb5 Bb5 e|-13-15-13-15--13-15-13-15--13-15-13-15|-13-15-18--13-15-18---|
B|--------------------------------------|------------------------------------------------|
G|--------------------------------------|------------------------------------------------|
D|--------------------------------------|------------------------------------------------|
A|--------------------------------------|------------------------------------------------|
E|--------------------------------------|------------------------------------------------|
F5 G5 F5 G5 F5 G5 Bb5 Bb5 Bb5
e|-13-15-13-15--13-15-13-15--13-15-13-15|-13-15-18--13-15-18-|-13-15-18--13-15-18-|
B|--------------------------------------|--------------------|--------------------|
G|--------------------------------------|--------------------|--------------------|
D|--------------------------------------|--------------------|--------------------|
A|--------------------------------------|--------------------|--------------------|
E|--------------------------------------|--------------------|--------------------|
Bb5 Bb5 Bb5 Bb5
e|-13-15-18--13-15-18-|-13-15-18--13-15-18-|
B|--------------------|--------------------|
G|--------------------|--------------------|
D|--------------------|--------------------|
A|--------------------|--------------------|
E|--------------------|--------------------|

Then some fill
Then...
Bb5 Bb5 Bb5 Bb5 Bb5 Bb5 Bb5
e|-13-15-18--13-15-18-|-13-15-18--13-15-18-|-13-15-18--13-15-18-|-13-15-18--13-15-18-|
B|--------------------|--------------------|--------------------|--------------------|
G|--------------------|--------------------|--------------------|--------------------|
D|--------------------|--------------------|--------------------|--------------------|
A|--------------------|--------------------|--------------------|--------------------|
E|--------------------|--------------------|--------------------|--------------------|
F5 G5
e|-13-15--------------|
B|--------------------|
G|--------------------|
D|--------------------|
A|--------------------|
E|--------------------|

Then you repeat the intro

THE END

| b bend
| / slide up
| \ slide down
| h hammer-on
| p pull-off
| ~ vibrato
| + harmonic
| x Mute note
===============================================================================





Comments


Popular The Raconteurs tabs & chords
Attention Bass Tabs
Blue Veins Chords
Steady As She Goes Drum Tabs
Attention Tabs
Floating 1 Tabs
Pull This Blanket Off Of Me Tabs
Salute Your Solution 1 Tabs
Store Bought Bones Intro Tabs
The Switch And The Spur Tabs
Carolina Drama 2 Ukulele


Song lyrics



↑ Back to top | Tablatures and chords are parodies/interpretations of the original songs. You may use it for private study, scholarship, research or language learning purposes only
© 2014 AZChords.com Contact us | Privacy policy | DMCA | Add/correct tabs | Request tabs | Top 50 tabs