» » »

The Raconteurs, Consoler Of The Lonely Bass tabs (ver.2)

Artists:  A B C D E F G H I J K L M N O P Q R S T U V W X Y Z # 

Consoler Of The Lonely Bass tabs (ver.2)

The Raconteurs Tabs
 Rating:
3.6/5 (5 votes)
Consoler Of The Lonely lessons Tabs too difficult? Try these video lessons and learn fast
                -------------------------------------------------------------------------------
			     CONSOLER OF THE LONELY - The Racontuers
-------------------------------------------------------------------------------

Tuning: Standard

This tab is for the benefit of my friend, and is a simplified version of the bass in the 
Look elsewhere for the fills in the chorus and stuff.

INTRO: Guitar Only until...

G|---------|
D|---------|
A|---------|
E|---3~----|

Then wait for the verse

VERSE:
G|-----------------------------|
D|-----------------------------|
A|-----------------------------|
E|---3---------3\\1//3---------|  x4

G|-----------------------------|
D|-----------------------------|
A|---3---------3\\1//3---------|
E|-----------------------------|  x2

G|-------------|
D|-------------|
A|---1-1-------|
E|--------1-1--|

G|-----------------------------|
D|-----------------------------|
A|-----------------------------|
E|---3---------3\\1//3---------|  x2


CHORUS:
G|----------------------------------|
D|----------------------------------|
A|-5-5-5-5-5-5-5-5\1-1-1-1-1-1-1-1--|
E|----------------------------------|  x2

GUITAR INTRO w/ BASS:
G|-----------------------3-2--------|
D|----------------------------------|
A|----------------------------------|
E|---3---3-------3-3-3-3------------|  x3
              pm - - - -

Pause for guitar only
Then (repeat x3 and pause) twice more
Then back to the verse (except just x2 on the first part rather than x4)
Then chorus again
And then...

CRAZY JAM THING:
G|--------------|
D|--------------|
A|--------------|
E|-1/3333333----|  x7

G|--------------|
D|--------------|
A|------1-----1-|
E|--1-1---1-1---|  x2

Pause for guitar

G|--------------|
D|--------------|
A|------1-----1-|
E|--1-1---1-1---|

G|-------------------------------------|
D|-------------------------------------|
A|----------------------------1-1------|
E|-1-3------1-3------1-3---------------|  x2

G|-------------------------------------|
D|-------------------------------------|
A|----------------------------1-1------|
E|-1-3-1-3--1-3-1-3--1-3-1-3-----------|

G|-------------------------------------|
D|-------------------------------------|
A|----------------------------1-1-1-1--|
E|-1-3-1-3--1-3-1-3--1-3-1-3-----------|

G|--------------|
D|--------------|
A|--------------|
E|-1/3333333----|  x3

G|--------------|
D|--------------|
A|------1-----1-|
E|--1-1---1-1---|  x2

G|--------------|
D|--------------|
A|--------------|
E|-1-3~---------|

Hope thats clear enough
jxmxsc

| /  slide up
| \  slide down
| h  hammer-on
| p  pull-off
| ~  vibrato
| +  harmonic
| x  Mute note
===============================================================================
            
Submit corrections

comments powered by Disqus
↑ Back to top | The Raconteurs Bass for Consoler Of The Lonely. Lyrics for acoustic guitar and electric guitar. Tablatures and chords are parodies/interpretations of the original songs. You may use it for private study, scholarship, research or language learning purposes only