» » »

Consoler Of The Lonely Bass tabs (ver.1)

Artists:  A B C D E F G H I J K L M N O P Q R S T U V W X Y Z # 

Consoler Of The Lonely Bass tabs (ver.1)

The Raconteurs
Rating:
0/5 (0 votes)

Hard to play? Try these video lessons and learn fast.
                Intro: Bass comes in with rhythm guitar

G|-------------------------------------------------------------|
D|-------------------------------------------------------------|
A|-------------------------------------3--1-3---3--1-3--3-1-1-0|
E|-3--1-3---3--1-3---3--1-3---3--1-3---------------------------|

G|----------------|
D|----------------|
A|----------------|
E|-3--1-3---3--1-3|

Chorus:

G|----------------------------------------|
D|----------------------------------------|
A|-55555555-1111-3333-55555555-1111-3333--|
E|---------------------------------------5|

Verse:

G|----------------|
D|----------------|X3
A|----------------|
E|-3-3---3-3---3-3|

G|---------------------------------------------|
D|---------------------------------------------|
A|---------------------3--1-3---3--1-3--3-1-1-0|
E|-3-3--1-3---3--1-3---------------------------|

G|----------------|
D|----------------|
A|----------------|
E|-3--1-3---3--1-3|

Chorus:

G|----------------------------------------|
D|----------------------------------------|
A|-55555555-1111-3333-55555555-1111-3333--|
E|----------------------------------------|

Bridge:

G|---------------------------|
D|-35555555-35555555-35555555|X3
A|---------------------------|
E|---------------------------|

Solo:

G|------------------|  |---|
D|------------------|X4|---|
A|---------------1-1|  |1-1|
E|-1-3--1-3--1-3----|  |---|

Outro:

G|-------------------------------------------------|
D|-35555555-35555555-35555555-35555555-35555555----|
A|-------------------------------------------------|
E|----------------------------------------------1-3|
            
Hard to play? Try these video lessons and learn fast. | Correct




comments powered by Disqus
↑ Back to top | Tablatures and chords are parodies/interpretations of the original songs. You may use it for private study, scholarship, research or language learning purposes only