» » »

Make Me Wanna Die Bass tabs (ver.5)

Artists:  A B C D E F G H I J K L M N O P Q R S T U V W X Y Z # 

Make Me Wanna Die Bass tabs (ver.5)

The Pretty Reckless
Rating:
0/5 (0 votes)
Tabs too difficult? Try these video lessons and learn fast.
                FIRST TAB SO COMMENTS AND FEEDBACK WELCOME.


=========
 | Intro |
 =========
   +   +   +   +    +   +   +   +    +   +   +   +    +   +   +   +
G |----------------|----------------|----------------|----------------|
D |----------------|----------------|----------------|----------------|
A |----------------|------------2---|----------------|------------121-|
D |0---------------|3-------6-------|3-33333333333333|333333336-------|

   +   +   +   +    +   +   +   +    +   +   +   +    +   +   +   +
G |----------------|----------------|----------------|----------------|
D |----------------|----------------|----------------|----------------|
A |----------------|------------2---|----------------|------------121-|
D |2-22222222222222|222222225-------|2-22222222222222|222222225-------|

 ===========
 | Verse 1 |
 ===========
   +   +   +   +    +   +   +   +    +   +   +   +    +   +   +   +
G |----------------|----------------|----------------|----------------|
D |----------------|----------------|----------------|----------------|
A |----------------|6-6-6-6-5-5-5-5-|4-4-4-4-3-3-3-3-|3---1-----------|
D |2-2-2-2-5-5-5-5-|----------------|----------------|--------5---4---|

   +   +   +   +    +   +   +   +    +   +   +   +    +   +   +   +
G |----------------|----------------|----------------|----------------|
D |----------------|----------------|----------------|----------------|
A |----------------|6-6-6-6-5-5-5-5-|4-4-4-4-3-3-3-3-|3-3-3-3-3-3-3-3-|
D |2-2-2-2-5-5-5-5-|----------------|----------------|----------------|

 ==============
 | Pre-chorus |
 ==============
   +   +   +   +    +   +   +   +    +   +   +   +    +   +   +   +
G |----------------|----------------|----------------|----------------|
D |----------------|3---1-----------|----------------|----------------|
A |4-------3-------|--------4-----3-|4---------------|----------------|
D |----------------|------------2---|------5-4---/---|9---------------|

 ==========
 | Chorus |
 ==========
   +   +   +   +    +   +   +   +    +   +   +   +    +   +   +   +
G |----------------|----------------|----------------|----------------|
D |----------------|----------------|----------------|----------------|
A |----------------|----------------|1-1-11111-1-1111|3-3-33333-3-3333|
D |2-2-22222-2-2222|5-5-55555-5-5555|----------------|----------------|

   +   +   +   +    +   +   +   +    +   +   +   +    +   +   +   +
G |----------------|----------------|----------------|----------------|
D |--------1-1-1111|3-3-33331-1-1111|----------------|----------------|
A |4-4-4444--------|----------------|1-1-11111-1-1111|3-1-------------|
D |----------------|----------------|----------------|----5-4---------|

 ===============
 | Post-chorus |
 ===============
   +   +   +   +    +   +   +   +    +   +   +   +    +   +   +   +
G |----------------|----------------|----------------|----------------|
D |----------------|----------------|----------------|----------------|
A |----------------|------------2---|----------------|------------121-|
D |2-22222222222222|222222225-------|2-22222222222222|222222225-------|

 ===========
 | Verse 2 |
 ===========
   +   +   +   +    +   +   +   +    +   +   +   +    +   +   +   +
G |----------------|----------------|----------------|----------------|
D |----------------|----------------|----------------|----------------|
A |----------------|6-6-6-6-5-5-5-5-|4-4-4-4-3-3-3-3-|3-3-3-3-3-1-----|
D |2-2-2-2-5-5-5-5-|----------------|----------------|------------5-4-|

   +   +   +   +    +   +   +   +    +   +   +   +    +   +   +   +
G |----------------|----------------|----------------|----------------|
D |----------------|----------------|----------------|----------------|
A |----------------|6-6-6-6-5-5-5-5-|4-4-4-4-3-3-3-3-|3-3-3-3-3-3-3-3-|
D |3-3-3-3-6-6-6-6-|----------------|----------------|----------------|

 ==============
 | Pre-chorus |
 ==============
   +   +   +   +    +   +   +   +    +   +   +   +    +   +   +   +
G |----------------|----------------|----------------|----------------|
D |----------------|3---1-----------|----------------|3---1-----------|
A |4-------3-------|--------4-----3-|4---------------|--------4-----3-|
D |----------------|------------3---|------6-5-------|------------3---|

   +   +   +   +    +   +   +   +
G |----------------|----------------|
D |----------------|----------------|
A |4---------------|----------------|
D |------6-5---/---|10--------------|

 ==========
 | Chorus |
 ==========
   +   +   +   +    +   +   +   +    +   +   +   +    +   +   +   +
G |----------------|----------------|----------------|----------------|
D |----------------|----------------|----------------|----------------|
A |----------------|----------------|1-1-11111-1-1111|3-3-33333-3-3333|
D |3-3-33333-3-3333|6-6-66666-6-6666|----------------|----------------|

   +   +   +   +    +   +   +   +    +   +   +   +    +   +   +   +
G |----------------|----------------|----------------|----------------|
D |--------1-1-1111|3-3-33331-1-1111|----------------|----------------|
A |4-4-4444--------|----------------|1-1-11111-1-1111|3-1-------------|
D |----------------|----------------|----------------|----6-5---------|

 ==========
 | Bridge |
 ==========
   +   +   +   +    +   +   +   +    +   +   +   +    +   +   +   +
G |----------------|----------------|----------------|----------------|
D |----------------|----------------|----------------|----------------|
A |----------------|4---------------|----------------|----------------|
D |3---------------|----------------|6---------------|1---------------|

   +   +   +   +    +   +   +   +    +   +   +   +    +   +   +   +
G |----------------|----------------|----------------|----------------|
D |----------------|----------------|----------------|----------------|
A |----------------|4---------------|----------------|----------------|
D |3---------------|----------------|5---------------|1---------------|

   +   +   +   +    +   +   +   +    +   +   +   +    +   +   +   +
G |----------------|----------------|----------------|----------------|
D |----------------|----------------|----------------|----------------|
A |----------------|4---------------|----------------|----------------|
D |3---------------|----------------|5---------------|1---------------|

  +   +   +   +    +   +   +   +    +   +   +   +    +   +   +   +
G |----------------|----------------|----------------|----------------|
D |----------------|----------------|----------------|----------------|
A |----------------|4---------------|----------------|----------------|
D |3---------------|----------------|5---------------|1---------------|

   +   +   +   +    +   +   +   +    +   +   +   +    +   +   +   +
G |----------------|----------------|----------------|----------------|
D |----------------|----------------|----------------|----------------|
A |----------------|4-4-4-4-4-4-4-4-|1-1-1-1-1-1-1-1-|3-3-3-3-3-3-3-3-|
D |3-3-3-3-3-3-3-3-|----------------|----------------|----------------|

 ==========
 | Chorus |
 ==========
   +   +   +   +    +   +   +   +    +   +   +   +    +   +   +   +
G |----------------|----------------|----------------|----------------|
D |--------1-1-1111|3-3-33331-1-1111|--------1-1-1111|3-3-33331-1-1111|
A |4-4-4444--------|----------------|4-4-4444--------|----------------|
D |----------------|----------------|----------------|----------------|

   +   +   +   +    +   +   +   +    +   +   +   +    +   +   +   +
G |----------------|----------------|----------------|----------------|
D |--------1-1-1111|3-3-33331-1-1111|----------------|----------------|
A |4-4-4444--------|----------------|1-1-11111-1-1111|3-1-------------|
D |----------------|----------------|----------------|----5-4---------|

 =========
 | Outro |
 =========
   +   +   +   +    +   +   +   +    +   +   +   +    +   +   +   +
G |----------------|----------------|----------------|----------------|
D |----------------|----------------|----------------|----------------|
A |----------------|------------2---|----------------|------------121-|
D |2-22222222222222|222222225-------|2-22222222222222|222222225-------|

   +   +   +   +    +   +   +   +    +   +   +   +    +   +   +   +
G |----------------|----------------|----------------|----------------|
D |----------------|----------------|----------------|----------------|
A |----------------|------------2---|----------------|------------121-|
D |3-33333333333333|333333336-------|3-33333333333333|333333336-------|
            
Tabs too difficult? Try these video lessons and learn fast.


comments powered by Disqus
↑ Back to top | Tablatures and chords are parodies/interpretations of the original songs. You may use it for private study, scholarship, research or language learning purposes only