» » »

Hit Me Like A Man Tabs (ver.1)

Artists:  A B C D E F G H I J K L M N O P Q R S T U V W X Y Z # 

Hit Me Like A Man Tabs (ver.1)

The Pretty Reckless
Rating:
5/5 (2 votes)

Hard to play? Try these video lessons and learn fast.
                (Intro)
It was kinda easy once I figured out the starting note! :P
Tuning: D# A D G B e

Part 1:
e  |------------------------------------|
B  |------------------------------------|
G  |------------------------------------|
D  |------------------------------------|
A  |-------6-4-6-4----------------------|
D#|---0------------7-5-3-3-0-3-5--------|


Part 2:
e  |------------------------------------|
B  |------------------------------------|
G  |------------------------------------|
D  |------------------------------------|
A  |-------6-4-6-4----------------------|
D#|---0------------7-5-7-3-0------------|


Part 3:
e  |------------------------------------|
B  |------------------------------------|
G  |------------------------------------|
D  |------------------------------------|
A  |-------6-4-6-4----------------------|
D#|---0------------7-5-3----------------|


The intro riff goes like this...
Part 1
Part 2
Part 1
Part 3

I think thats fairly close to the cd! :P

@LooveMeDo_
:)
            
Hard to play? Try these video lessons and learn fast. | Correct




comments powered by Disqus
↑ Back to top | Tablatures and chords are parodies/interpretations of the original songs. You may use it for private study, scholarship, research or language learning purposes only